В начало
АБВГДЖЗИКЛМНОПРСТУФХЦЧШЭЮЯA-Z0-9
 
Агата Кристи - Творческий вечер Глеба Самойлова
Ползет    
Используется всего 2 аккорда, которые играются по одному на такт как указано ниже.
Аккорды играются как и в предыдущем варианте перебором:

     Amadd9
E||--------------0-----------|
B||--------0-----------0-----|
G||-----5-----5-----5-----5--|
D||--7-----------------------|
A||--------------------------|
E||--------------------------|

  G#add9+/5+
--------------0-----------|
--------0-----------0-----|
-----5-----5-----5-----5--|
--6-----------------------|
--------------------------|
--------------------------|

Сама мелодия:

   Amadd9                     G#add9+/5+
E||------|------|------|------|------|------|------|-------------------|
B||------|------|------|------|------|------|------|-------------------|
G||------|------|------|------|------|------|------|-------------------|
D||------|------|------|------|------|------|------|--------------2----|
A||------|------|------|------|------|------|------|-------------------|
E||------|------|------|------|------|------|------|-------------------|
                                                                  Я
 Amadd9
----------------------|----------------------|----------------------|
----------------------|----------------------|----------------------|
----------------------|----------------------|----------------------|
--2----2----0----0----|-----------------2----|--2----2----0----0----|
----------------------|--3----3----2---------|----------------------|
----------------------|----------------------|----------------------|
в_детс-ве спря-тал-     ся  в_шка-фу,   а     шкаф  сто-  ял  в_та-
                              G#add9+/5+
----------------------|----------------------|----------------------|
----------------------|----------------------|----------------------|
----------------------|----------------------|----------------------|
-----------------0----|--0----0--------------|-----------------0----|
--3----3----2---------|------------3----3----|--2----2----0---------|
----------------------|----------------------|----------------------|
 ком   уг- лу,  что     бе-  зо-  браз-ная     Лу-   на   е-   го

                                               Amadd9
----------------------|----------------------|----------------------|
----------------------|----------------------|----------------------|
----------------------|----------------------|----------------------|
--0----0--------------|-----------------2----|--2----2----0----0----|
------------3----3----|--2----2----0---------|----------------------|
----------------------|----------------------|----------------------|
 ли-  за-  ла-  ла      из   ок-   на.  Я      не-   на-  ви-  жу

----------------------|----------------------|----------------------|
----------------------|----------------------|----------------------|
----------------------|----------------------|----------------------|
-----------------2----|--2----2----0----0----|-----------------0----|
--3----3----2---------|----------------------|--3----3----2---------|
----------------------|----------------------|----------------------|
свет  лу-  ны,  ког-    да   две- над- цать    бьют  ча-  сы,  и

 G#add9+/5+
----------------------|----------------------|----------------------|
----------------------|----------------------|----------------------|
----------------------|----------------------|----------------------|
--0----0--------------|-----------------0----|--0----0--------------|
------------3----3----|--2----2----0---------|------------3----3----|
----------------------|----------------------|----------------------|
 по   сте- не    та-    ко-   е   вот  пол-    зет, пол- зет, пол-

                        Amadd9
----------------------|--------------------|----------------------|
----------------------|--------------------|--1----0--------------|
----------------------|--------------------|------------2---------|
----------------------|---------------2----|-----------------2----|
--2----2----0----0----|--0-----------------|----------------------|
----------------------|--------------------|----------------------|
 зет, пол- зет, пол-    зет.      "Дальше свист Глеба"...

                                              G#add9+/5+
----------------------|----------------------|----------------------|
----------------------|--1----0--------------|----------------------|
----------------------|------------2---------|----------------------|
--3----2----2----2----|-----------------2----|--3----2----2----2----|
----------------------|----------------------|----------------------|
----------------------|----------------------|----------------------|
                                                                     
----------------------|----------------------|----------------------|
--1----0--------------|----------------------|--1----0--------------|
------------2---------|----------------------|------------2---------|
-----------------2----|--3----2----2----2----|-----------------2----|
----------------------|----------------------|----------------------|
----------------------|----------------------|----------------------|
                                                               Я
 Amadd9
----------------------|----------------------|----------------------|
----------------------|----------------------|----------------------|
----------------------|----------------------|----------------------|
--2----2----0----0----|-----------------2----|--2----2----0----0----|
----------------------|--3----3----2---------|----------------------|
----------------------|----------------------|----------------------|
в_детс-ве спря- тал-    ся  в_шка-фу,   я     в_нем  жи-  ву   и

                       G#add9+/5+
----------------------|----------------------|----------------------|
----------------------|----------------------|----------------------|
----------------------|----------------------|----------------------|
-----------------0----|--0----0--------------|-----------------0----|
--3----3----2---------|------------3----3----|--2----2----0---------|
----------------------|----------------------|----------------------|
в_нем ум-  ру,   я      чув- ству- ю,  что      э-   то здесь, что  

                                               Amadd9
----------------------|----------------------|----------------------|
----------------------|----------------------|----------------------|
----------------------|----------------------|----------------------|
--0----0--------------|-----------------2----|--2----2----0----0----|
------------3----3----|--2----2----0---------|----------------------|
----------------------|----------------------|----------------------|
  э-  то   хо-  чет      ме- ня съесть. Я       не-  на-  ви-  жу  
                                                                     
----------------------|----------------------|----------------------|
----------------------|----------------------|----------------------|
----------------------|----------------------|----------------------|
-----------------2----|--2----2----0----0----|-----------------0----|
--3----3----2---------|----------------------|--3----3----2---------|
----------------------|----------------------|----------------------|
 свет лу-  ны,  ког-     да  две- над- цать    бьют  ча-  сы, ког-

 G#add9+/5+
----------------------|----------------------|----------------------|
----------------------|----------------------|----------------------|
----------------------|----------------------|----------------------|
--0----0--------------|-----------------0----|--0----0--------------|
------------3----3----|--2----2----0---------|------------3----3----|
----------------------|----------------------|----------------------|
 да   ко-  мне  та-     ко-   е   вот  пол-    зет, пол- зет, пол-

                        Amadd9
----------------------|--------------------|----------------------|
----------------------|--------------------|--1----0--------------|
----------------------|--------------------|------------2---------|
----------------------|---------------2----|-----------------2----|
--2----2----0----0----|--0-----------------|----------------------|
----------------------|--------------------|----------------------|
 зет, пол- зет, пол-    зет.      "Дальше свист Глеба"...

                                              G#add9+/5
----------------------|----------------------|----------------------|
----------------------|--1----0--------------|----------------------|
----------------------|------------2---------|----------------------|
--3----2----2----2----|-----------------2----|--3----2----2----2----|
----------------------|----------------------|----------------------|
----------------------|----------------------|----------------------|
                                                                     
----------------------|----------------------|----------------------|
--1----0--------------|----------------------|----------------------|
------------2---------|----------------------|----------------------|
-----------------2----|--3----2----2----2----|--0----0--------------|
----------------------|----------------------|------------3----2----|
----------------------|----------------------|----------------------|
                                       Пол-    зет, пол- зет, пол-    
 Amadd9
-------------------||
-------------------||
-------------------||
-------------------||
--0----------------||
-------------------||
 зет.      

Концовка играется сверху вниз:

 Amadd9
E||--0---------------|
B||--0---------------|
G||--5---------------|
D||--7---------------|
A||------------------|
E||------------------|

Подбор: Нт (nazlovragam@list.ru)