В начало
АБВГДЖЗИКЛМНОПРСТУФХЦЧШЭЮЯA-Z0-9
 
БИ-2 - Партия дудок
Сердце    
Solo:
1|---------------------------------5-5-----7-7--------
2|-6-6-5-5---------6-6-5-5----------------------------
3|---------7-7-5-5---------7-7-5-5-----5-5-----5-5-7-9
4|----------------------------------------------------
5|----------------------------------------------------
6|----------------------------------------------------
 
1|-5-8-----10-7-8-5-5-8------10-7-8-5-5-7-10-12----|
2|-----6-5--------------6-5---------------------6-5|
3|-------------------------------------------------|
4|-------------------------------------------------|
5|-------------------------------------------------|
6|-------------------------------------------------|

Intro:    Am     F    C    C/H  Am

          Am   F
Из всех причин
          Am   F
Одна причина
          G
Что ты ушла
F             Am     F
С другим мужчиной
        Am      F
И где покой
        Am      F
Невозмутимо
       G      F
Чужой женой
           Am
Проходишь мимо

Bridge.

C    Dm     Am
И где же они
Dm       G
Чары любви
    F
Зачем

Припев:
         Am                Am/C    Am    Am/C    Am
   Ты разбиваешь мое сердце
         G               F
   Мы никогда не будем вместе

Figure/Coda:   Am  G  F - 2 раза

К чему стихи
Я погибаю
И ничего
Не понимаю
Хороших нет
Воспоминаний
Таков сюжет
Моих страданий

Bridge.

Припев.

Соda.