В начало
АБВГДЖЗИКЛМНОПРСТУФХЦЧШЭЮЯA-Z0-9
 
Воскресение - Все сначала
Случилось    
Перебор (C):
E|---------0--------|---------0--------|---------0--------|---------0-------3-|      
H|-------1-----1----|-------1-----1----|-------1-----1----|-------1-------0---|                                       
G|-----0-----0---0--|-----0-----0---0--|-----2-----2---2--|-----2-------0-----|                                  
D|------------------|------------------|------------------|-------------------|  
A|--3---------------|--2---------------|--0---------------|--0----------------|   
E|------------------|------------------|------------------|-----------3-------| 

E|---------0--------|---------0--------|---------0--------|----------1--------|
H|-------1-----1----|-------1-----1----|-------1-----1----|--------1-----1----|
G|-----0-----0---0--|-----0-----0---0--|-----2-----2---2--|------2-----2---2--|
D|------------------|------------------|------------------|-------------------|
A|--3---------------|--2---------------|--0---------------|--0----------------|
E|------------------|------------------|------------------|-------------------|

E|---------1--------|---------1--------|---------1--------|----------1--------|
H|-------3-----3----|-------3-----3----|-------0-----0----|--------0-----0----|
G|-----2-----2---2--|-----2-----2---2--|-----0-----0---0--|------0-----0---0--|
D|--0---------------|------------------|------------------|-------------------|
A|------------------|--3---------------|------------------|-------------------|
E|------------------|------------------|--3---------------|--3----------------|

E|---------1--------|---------1--------|---------1--------|----------1--------|
H|-------3-----3----|-------3-----3----|-------0-----0----|--------0-----0----|
G|-----2-----2---2--|-----2-----2---2--|-----0-----0---0--|------0-----0---0--|
D|--0---------------|------------------|------------------|-------------------|
A|------------------|--3---------------|------------------|-------------------|
E|------------------|------------------|--3---------------|--3----------------|

Соло в начале песни:
E|--10h11h13--10-10---10-10h11h13--10-10---10-10-11-13--10-10--|-------------------------|
H|-------------------------------------------------------------|--10-11-13--11-11--------|
G|-------------------------------------------------------------|-------------------------|
D|-------------------------------------------------------------|-------------------------|
A|-------------------------------------------------------------|-------------------------|
E|-------------------------------------------------------------|-------------------------|

E|--10-11-13--10-10---10-10-11-13--10-10---10-10-11-13--10-10--|----------------------------|
H|-------------------------------------------------------------|--10-11-13-11---11-10-------|
G|-------------------------------------------------------------|----------------------12-10-|
D|-------------------------------------------------------------|----------------------------|
A|-------------------------------------------------------------|----------------------------|
E|-------------------------------------------------------------|----------------------------|

E|--10-11-13--10-10---10-11-13--10-10--10-11-13--10-10--|
H|------------------------------------------------------|
G|------------------------------------------------------|
D|------------------------------------------------------|
A|------------------------------------------------------|
E|------------------------------------------------------|

E|----------------------------|---------------------------------------------|
H|--11-10h11p10---------------|---------------------------------------------|
G|---------------12-10--------|-13b14-----14b15r14--11----11----------------|
D|----------------------------|------------------------12----12--10h12p10---|
A|----------------------------|---------------------------------------------|
E|----------------------------|---------------------------------------------|


Перебор (A):
                                                                  /----------1---------|

E|---------------------|------------------|----------------------|---------------------||
H|----------2----------|-----------2------|--------2-------------|----------------0----||
G|---(2)-------2---2---|---(4)---4---4----|------2-----2---2-----|-------2------1-----*||
D|--------2------2-----|-------2-------2--|----2---------2-------|---(2)------2-------*||
A|--0------------------|------------------|----------------------|---------------------||
E|---------------------|--4---------------|--2-------------------|--2-------0----------||


 /---------2-----------|

E|----------2----------||-----------------|-------------0--------|---------------------|
H|--5------------5-----||--------3--------|---------3------------|-------0-------0-----|
G|--------2------2-----||*---2-----2---2--|-----2-----2---2------|----------1----------|
D|------2-----2--------||*-----4-----4----|-------4---------4----|-----2-------2-------|
A|---------------------||--2--------------|--0-------------------|---------------------|
E|--2------------------||-----------------|----------------------|--0------------------|

 /------------1--------| /--------2-------|

E|---------------------||-----------------|----------------------|---------------------|
H|-----------0---------||---------0-------|----------------------|---------------------|
G|-------1------------*||----1-------1----|----------------------|---------------------|
D|----2----------2----*||-------2---------|----------------------|---------------------|
A|---------------------||-----------------|----------------------|---------------------|
E|--0------------------||--0--------------|----------------------|---------------------|

Solo: в начале песни
        2x                                     3x
E|--9h10h12-9-9--|--5h7h9--5-5-5----|--9h10h12-9---|--5-7h9--5-4-5-4----|
H|---------------|------------------|--------------|-----------------7--|
G|---------------|------------------|--------------|--------------------|
D|---------------|------------------|--------------|--------------------|
A|---------------|------------------|--------------|--------------------|
E|---------------|------------------|--------------|--------------------|
         2x                                             (/Sl)
E|--9h10h12-9-9--|--5--4h5--4-------|--/5----------|--8p7p5---5---------|
H|---------------|------------7--5--|------7--5----|--------7---5h7--7--|
G|---------------|------------------|----7------7--|--------------------|
D|---------------|------------------|--------------|--------------------|
A|---------------|------------------|--------------|--------------------|
E|---------------|------------------|--------------|--------------------|

Solo: в середине песни

E|----------------------------------9-10-9--9---------------------------------|
H|-9h10h12-9-9-9--9-10-12-9-------10------10-12-10---------10-9-10-12-9-10----|
G|-------------------------9-10-11----------------9h11-9--9-------------------|
D|------------------------------------------------------11--------------------|
A|----------------------------------------------------------------------------|
E|----------------------------------------------------------------------------|

                                .
E|------------------------------9------------------9---9--(9)-9--9-----9-----9------|
H|----------9--9-10---9-10-10h12-12-10-----0-(0)-10-10-10h12--10-10h12-10h12-10h12--|
G|--11-10-11-11-------------------------11-9h11-------------------------------------|
D|----------------------------------------------------------------------------------|
A|----------------------------------------------------------------------------------|
E|----------------------------------------------------------------------------------|


E|---------------------------------------------------------------------------|
H|--10---------------------------------------------10-9----------------------|
G|----11-9-10-11-9--9-------9-----11p9---11p9--9-------11--------------------|
D|----------------11-9-10-11-11p10-----11----11-11---------------------------|
A|---------------------------------------------------------------------------|
E|---------------------------------------------------------------------------|

                      |  |    |  |
                     \|/\|/  \|/\|/
Кода:   Аккорды   ||:  A      E  A:|| - Gtr.3

Gtr.1
                                                     4x
E||--0-2----------|----0----------|--0--------------|--0-------------------||-------H||------0-3-2----|------2-0-0----|----2-0-0-3-2----|----2-0-0-------------||        |
G||*--------------|------------2--|-----------------|----------2-2--------*||        |
D||*--------------|---------------|-----------------|---------------------*||        |
A||---------------|---------------|-----------------|----------------------||        |
E||---------------|---------------|-----------------|----------------------||        |
                                                                                     \ (вместе)
Gtr.2                                                                                /
                                                                                     |
E||----7-9999999--|--77-10-99999--|-----7-9999999---|--77------------------||        |
H||--10-----------|---------------|--10-------------|----9-10-10-10-10-10--||        | 
G||*--------------|---------------|-----------------|----------------------||        | 
D||*--------------|---------------|-----------------|----------------------||        |
A||---------------|---------------|-----------------|----------------------||        |
E||---------------|---------------|-----------------|----------------------||-------/

    A               A+7     F#m Dm7 E
Случилось что-то в городе моём,
     A           A+7             F#m  Gdim
Бульвары встрепенулись, словно крылья,
    Hm            Hm+7     E
А просто скука, смытая дождём,
   Hm         Dm+7           E
Была, как оказалось, просто пылью.

И понял я, что также я не волен
В случайных поворотах бытия,
Что я не одинок, что я не болен,
Растерянность уйдет, останусь я.

Что я останусь, но еще успею
Уйти, не оглянувшись, в пустоту.
И с кем расстанусь, тем пока не смею
Сказать, что мне уже невмоготу.

А мир пожалуй стоит изменить,
Пусть станем мы добрей и старомодней.
Доверчивей, наивнее любить,
И искренней, а стало быть свободней.

Но ведь случилось что-то в мире под дождем,
Пустыни раскаленные остыли.
Смеются люди в городе моём,
Дождем освобождённые от пыли.

   Gdim
+-+-+-+-+-+
| | 0 | 0 | II
+-+-+-+-+-+  V
| | | 0 | 0 VIII
+-+-+-+-+-+

Подбор соло: Pashin Timophei (t_pashin@mail.ru)