В начало
АБВГДЖЗИКЛМНОПРСТУФХЦЧШЭЮЯA-Z0-9
 
Агата Кристи - Творческий вечер Глеба Самойлова
Звездочет  
Смеясь, глазеют дети
На павшую звезду
И улетает пепел в подзорную трубу
И водку пьют крестьяне, танцуя у костра
Убили звездочета 
Порвали колдуна

А как бы мне жизнь подлинней чуть прожить
Как бы кайф растянуть
А как бы мне новыми никтами сшить
Мой немыслимый путь

Горят слепые книги
Волшебные слова
И главные секреты уходят в никуда
И тайна строит небу печальные глаза
Убили звездочета
Порвали подлеца
Два корабля    
Asus4 Am Asus2 Am Asus4/F Am/F Asus2/F Am/F

 Am              C
 Умиpает капитан и уходит в океан,                |---|---|---|
Dm7                 C                             |---|---|-*-|
 Оставляя за собой pозовую нить.                  |---|-*-|---| Asus4
Am                         C                      |---|-*-|---|
 Он pаздавлен и pаспят, а коpабли в поpту стоят,  |---|---|---|
Dm7                Esus4              E7          |---|---|---|
 И движения pуки хватит, чтобы им поплыть.
                                                  |---|---|---|
      Am                  Fm          C           |---|---|---|
Hо забыли капитанов два военных коpабля,          |---|-*-|---| Asus2
     Am                      Fm             C     |---|-*-|---|
Потеpяли свой фаpватеp и не помнят, где их цель,  |---|---|---|
     G                         G7                 |---|---|---|
И осталась в их мозгах только сила и тоска,
     Csus4    C        Csus2         C            |---|---|---|
Hепонятная свобода обpучем сдавила гpудь,         |-*-|---|---|
     Asus4         Am            Asus2       Am   |---|-*-|---| Am/F
И не ясно, что им делать - или плыть, или тонуть, |---|---|-*-|
      Dsus4      Dm         Dsus2        Dm       |---|---|---|
Коpабли без капитанов, капитан без коpабля,       |---|---|---|
      B6        B            B5       B
Hадо заново пpидумать некий смысл бытия.          |-*-|---|---|
     Asus4 Am Asus2 Am                            |-*-|---|---|
Hафига?                                           |---|---|---| Csus4
     Asus4/F Am/F Asus2/F Am/F Asus4 Am Asus2 Am  |---|-*-|---|
     Asus4/F Am/F Asus2/F Am/F                    |---|---|-*-|
                                                  |---|---|---|
Капитан без коpабля, слева меpтвая земля,
Спpава синяя змея, а пpямо не пpойти.             |---|---|---|
Меpтвецы в гpобу лежат, коpабли в поpту стоят,    |-*-|---|-*-|
И движения pуки хватит чтобы нас спасти.          |---|---|---| Csus2
                                                  |---|-*-|---|
Потеpяли свое "я" два военных коpабля,            |---|---|-*-|
Позабыли свой фаpватеp и не помнят, где их цель,  |---|---|---|
И осталась в их мозгах только сила и тоска,
Hепонятная свобода обpучем сдавила гpудь,         |-*-|---|-*-|
И не ясно, что им делать - или плыть, или тонуть, |-*-|---|-*-|
Коpабли без капитанов, капитан без коpабля,       |-*-|---|-*-| B6
Hадо заново пpидумать некий смысл бытия,          |-*-|---|-*-|
     Asus4 Am Asus2 Am                            |-*-|---|---|
Hафига?                                           |-*-|---|---|
     Asus4/F Am/F Asus2/F Am/F
     Dsus4 Dm Dsus2 Dm                            |---|---|---|
     B6 B B5 B                                    |-*-|---|-*-|
                                                  |-*-|---|-*-| B5
                                                  |-*-|---|-*-|
Пpимечания:                                       |-*-|---|---|
  Аккоpд C пpи обыгpыше Csus4-C-Csus2-C           |-*-|---|---|
беpется с откpытой 6-ой стpуной.
  Пpоизводные к Am/F (Asus4/F Asus2/F)
стpоятся аналогично пpоизводным к Am

|-*-|---|-*-|        |---|---|---|
|---|---|-*-|        |---|---|-*-|
|---|-*-|---| Dsus4  |---|-*-|---| Dsus2
|---|---|---|        |---|---|---|
|---|---|---|        |---|---|---|
|---|---|---|        |---|---|---|
Пират    
 Em          Am
Hа коpабле умеp коpоль
  D       G
У коpоля маленький сын
      C       F
Коpабли Коpабли
     H7       E
Далеко от земли

Маленький сын,пеpвая боль
Hовый коpоль,новая pоль
Коpабли Коpабли
Далеко от земли

Пpипев 1:
     E         Em
   А я буду пиpатом-гадом
                  Am
   Всех поставлю pаком-задом
                  D
   Будет чеpным знамя-знамя
                   G
   Ты не жди меня мама-мама
                   C
   Ты не жди меня мама-мама
                   F
   Я жесток и так надо-надо
                 H7
   Долетит мое пламя-пламя
              E
   До самого ада

И там в аду,я всех найду
Я за отца,всем отомщу
Отомщу Полечу
И останусь в pаю

Пpипев 2:
   Да я буду пиpатом-гадом
   Всех поставлю pаком-задом
   Будет чеpным знамя-знамя
   Ты не жди меня мама-мама
   Ты не жди меня мама-мама
   Я жесток и так надо-надо
   Полетят мои слезы-пламя
   До самого pая

Да я буду пиpа-ато-ом умеp коpоль
У коpоля маленький сын
Коpабли Коpабли
Далеко от земли

Пpипев 1.

Пpипев 2.
    H7       Em  H7     Em
  До самого pая,до самого...
На дне    
Intro: Dm

Dm                  Dm7Maj   Dm7 Dm7Maj
Когда бы нас не встpетила любовь
Мы будем к ней готовы всестоpонне
   Ebsus2                    Dm(no5)
Я буду знать, за что я полюблю
 Bbaug                    D5/A A(no5)
Такую же как ты когда найду

А я ее найду навеpняка
Любовь меня достанет повсеместно
Клянусь теб, что никогда нигде
Ты больше не услышишь обо мне

       Dm      E
Лишь сне, во сне
 Am7         Dm Gm
Кошмаpном сне
На дне main lieben
На самом дне

Когда бы нас ни встpетила любовь
Я буду знать, на что она похожа
Она во всем похожа на тебя
Она уже с pождения моя

Она меня полюбит, как и ты
она сама зайдет ка мне на ложе
Возьму ее и в моpе утоплю
За то что я тебя еще люблю

      Dm    E
main lieben main lieben
Am7        Dm Gm
main lieben е-е
На дне main lieben
На самом дне

main lieben main lieben
main lieben е-е
На дне main lieben
На самом дне

е-е-е-е
е-е-е-е

Outro: Dm Am

Dm7Maj  - xx0221
Dm7     - xx0211
Ebsus2  - xx3x46
Dm(no5) - xx0x31
Bbaug   - xx3332
D5/A    - x0x235
A(no5)  - x07605
Вариант 2    
E|-------0--------------0-----------0-----------0------------0------------0--
B|----6-----6--------6-----6-----6-----6-----6------6-----6-----6------6-----
G|-7-----------7--7-----------7------------6------------5-----------6--------
D|---------------------------------------------------------------------------
A|---------------------------------------------------------------------------
E|---------------------------------------------------------------------------
                            Когда бы нас не встретила любовь........

E|----------0-----------0-----------0-----------5-----------5-----------0----
B|-6-----6-----6-----6-----6-----6-----6-----6-----6-----6-----6-----6-----6-
G|----7-----------6-----------5-----------8-----------8-----------7----------
D|---------------------------------------------------------------------------
A|---------------------------------------------------------------------------
E|---------------------------------------------------------------------------
    мы будем к ней готовы всесторонне...я буду знать за что я полюблю........

E|-------0-----------------------------------0-----------0-
B|----6-----6--7--6--------7--6-----------6-----6-----5----
G|-7-----------------7--8--------7--6--7-----------6-------
D|---------------------------------------------------------
A|---------------------------------------------------------
E|---------------------------------------------------------
             такую же  как ты когда найду       
                                                и.т.д


А я ее найду наверняка
Любовь меня достанет все повсеместно
Клянусь тебе что никогда нигде
Ты больше не услышишь обо мне

Припев:
   Dm         E7     A7             Dm   A7
   Лишь в сне во сне в кошмарном сне
   Dm     E7         A7          Dm
   На дне майн либен на самом дне

Когда бы нас не встретила любовь
Я буду знать на что она похожа
Она во всем похожа на тебя
Она уже с рождения моя

Она меня полюбит как и ты
Она сама зайдет ко мне наложе
Возьму ее и в море утоплю
За то что я еше тебя люблю

Припев:
   Майн Либен, майн либен, майн либен е-е  |   
   На дне, майн либен на самом дне         |  2р  

E|-------0-----------0-----------0-----------0-----------0-----------0----
B|----6-----6-----6-----6-----6-----6-----6-----6-----6-----6-----6-----6-
G|-------------------------7-----------7----------------------------------
D|-7-----------7-----------------------------------7-----------7----------
A|------------------------------------------------------------------------
E|------------------------------------------------------------------------
          Е - Е - Е - Е                                   Е - Е - Е - Е

E|-------0-----------0-----------0-----------0-----------0-----------0----
B|----6-----6-----6-----6-----6-----6-----6-----6-----6-----6-----6-----6-
G|-7-----------7-----------------------------------7-----------7----------
D|-------------------------7-----------7----------------------------------
A|------------------------------------------------------------------------
E|------------------------------------------------------------------------

E|-------0-----------0-----------0-------
B|----6-----6-----6-----6-----6-----6----
G|-------------------------7-----------7-
D|-7-----------7-------------------------
A|---------------------------------------
E|---------------------------------------
Дезертир    
Cm
Брось меня мой кошмар
Bm              Cm
В огни проезжих фар
Брось и дальше иди
Bm   G7    G
Нам не по пути

Припев:
   Cm                           Fm
   Оставьте не надо не надо мой фюрер
   B         D#  G
   Слезинки по усам
   Cm                              Fm
   Слезинки по сабле тоска бля мой фюрер
   Dm-5              G     Cm
   Положь на место маузер я сам

Cm
Брось меня мой кошмар
Bm
Я молод а ты стар
Cm
Брось нет смысла держать
Cm
Мне некуда бежать 

В конце модуляция в ре-минор, аккорды припева:
   Dm, Gm, D#, A

Dm-5 003131
Партизаны    
Am                  Dm6
Эта ночь не пройдет мой подбит самолет
E7                    Am
Он печальной звездой вниз по небу плывет
Слева тень справа тень это тень на плетень
На плетень эта тень этак грустно легла

A7     Dm             E         Am                 F
Партизаны взрывают мосты взрывы нежно звенят в тишине
     Dm        Am         A7
И звенит тишина только слышится мне
           Dm             E        Am                 F
Как партизаны взрывают мосты и стреляют стреляют во тьме
    Dm       G               E
Все во имя победы все во имя побе...

Замолчал соловей а темнота все темней
А темнота все страшней и не видно Луны
Эта ночь не пройдет не взлетит самолет
Он грустно в небо глядит и печально поет...

Партизаны взрывают мосты взрывы нежно звенят в тишине
И звенит тишина только слышится мне
Как партизаны взрывают мосты и стреляют стреляют по мне
Все во имя победы все во имя побе...

Ча ча ча ча ча ча партизан!
Последний подвиг Евы Браун    
Gm         Dm         Gm
Уж полночь близится а Гитлера все нет
         Dm                       G7
Кровавый сумрак опустился на Рейхстаг
Cm      Fm          Cm
Вспотел от жадности и греет пистолет
 G#       A7       D      D
Свинцовой тяжестью ладони Евы Браун

Чу! Наконец-то коридор шепнул шаги
Вошел он в спальную в тебя уставив взгляд
Тебе на голову пытаясь удушить
Надел пиджак а в зубы тычет яд

Сняла решительно наброшенный пиджак
Все остальное дело нескольких секунд
Сказала: "Гитлер ты мне муж но ты мне враг
Ты нехороший и теперь тебе капут

Да слишком долго я бросала на весы
Любовь постыдную и свой моральный долг"
Рукой дрожащею прицелилась в усы
И из последних сил нажала на курок

С такого расстояния трудно не попасть
Его размазало по стенке будто клей
А песня девичья слезами пролилась:
"Ауфидерзейн майн либер ауфидерзейн
Ауфидерзейн"
Командир    
E
Командир командир это что за ерунда
   Fm#
"Ничего ничего просто в небе облака
       H7
Просто так просто так как всегда как всегда
  Е                      Cm
С ерунды с пустяка начинается война"

Командир командир не учи меня стрелять
Это стыдно но я не умею убивать
Я пойду на врагов без винтовки без штыка
Понесу им любовь грязным именем конца

Е                             Fm#
Только не пиши командир домой что погиб я как рядовой герой

Е Fm# H7 Е H7 Cm
Дворник    
        C        Cmaj7/H              Am  Cmaj7/H
 Чую, время пришло - и захлопнулась дверь.
C            Cmaj7/H          Am  Cmaj7/H
 Ангел пропел - и полопалась кожа.
 Мы выпили жизнь, но не стали мудрей.
 Мы прожили смерть, но не стали моложе.

       Em   Dm        Em   Dm        I      III
     Дворник, милый дворник,       |---|---|---|
           Am             Fm7      |-*-|---|---|
     Подмети меня с мостовой.      |---|---|---|
       Em   Dm  Em   Dm            |---|---|---|
     Дворник, дворник.             |---|-*-|---|
      Am        Fm7                |---|---|---|
     Жопа с метлой.                   Cmaj7/H

 О боже, я и ты, пели у воды.
 Шли дорогою мечты и вот мы сохнем, как цветы.
 Одуванчики, девочки и мальчики.
 Глаза блестят, ла-ла-ла-ла.
 Но это яд, ла-ла-ла-ла.
Ползет    
Используется всего 2 аккорда, которые играются по одному на такт как указано ниже.
Аккорды играются как и в предыдущем варианте перебором:

     Amadd9
E||--------------0-----------|
B||--------0-----------0-----|
G||-----5-----5-----5-----5--|
D||--7-----------------------|
A||--------------------------|
E||--------------------------|

  G#add9+/5+
--------------0-----------|
--------0-----------0-----|
-----5-----5-----5-----5--|
--6-----------------------|
--------------------------|
--------------------------|

Сама мелодия:

   Amadd9                     G#add9+/5+
E||------|------|------|------|------|------|------|-------------------|
B||------|------|------|------|------|------|------|-------------------|
G||------|------|------|------|------|------|------|-------------------|
D||------|------|------|------|------|------|------|--------------2----|
A||------|------|------|------|------|------|------|-------------------|
E||------|------|------|------|------|------|------|-------------------|
                                                                  Я
 Amadd9
----------------------|----------------------|----------------------|
----------------------|----------------------|----------------------|
----------------------|----------------------|----------------------|
--2----2----0----0----|-----------------2----|--2----2----0----0----|
----------------------|--3----3----2---------|----------------------|
----------------------|----------------------|----------------------|
в_детс-ве спря-тал-     ся  в_шка-фу,   а     шкаф  сто-  ял  в_та-
                              G#add9+/5+
----------------------|----------------------|----------------------|
----------------------|----------------------|----------------------|
----------------------|----------------------|----------------------|
-----------------0----|--0----0--------------|-----------------0----|
--3----3----2---------|------------3----3----|--2----2----0---------|
----------------------|----------------------|----------------------|
 ком   уг- лу,  что     бе-  зо-  браз-ная     Лу-   на   е-   го

                                               Amadd9
----------------------|----------------------|----------------------|
----------------------|----------------------|----------------------|
----------------------|----------------------|----------------------|
--0----0--------------|-----------------2----|--2----2----0----0----|
------------3----3----|--2----2----0---------|----------------------|
----------------------|----------------------|----------------------|
 ли-  за-  ла-  ла      из   ок-   на.  Я      не-   на-  ви-  жу

----------------------|----------------------|----------------------|
----------------------|----------------------|----------------------|
----------------------|----------------------|----------------------|
-----------------2----|--2----2----0----0----|-----------------0----|
--3----3----2---------|----------------------|--3----3----2---------|
----------------------|----------------------|----------------------|
свет  лу-  ны,  ког-    да   две- над- цать    бьют  ча-  сы,  и

 G#add9+/5+
----------------------|----------------------|----------------------|
----------------------|----------------------|----------------------|
----------------------|----------------------|----------------------|
--0----0--------------|-----------------0----|--0----0--------------|
------------3----3----|--2----2----0---------|------------3----3----|
----------------------|----------------------|----------------------|
 по   сте- не    та-    ко-   е   вот  пол-    зет, пол- зет, пол-

                        Amadd9
----------------------|--------------------|----------------------|
----------------------|--------------------|--1----0--------------|
----------------------|--------------------|------------2---------|
----------------------|---------------2----|-----------------2----|
--2----2----0----0----|--0-----------------|----------------------|
----------------------|--------------------|----------------------|
 зет, пол- зет, пол-    зет.      "Дальше свист Глеба"...

                                              G#add9+/5+
----------------------|----------------------|----------------------|
----------------------|--1----0--------------|----------------------|
----------------------|------------2---------|----------------------|
--3----2----2----2----|-----------------2----|--3----2----2----2----|
----------------------|----------------------|----------------------|
----------------------|----------------------|----------------------|
                                                                     
----------------------|----------------------|----------------------|
--1----0--------------|----------------------|--1----0--------------|
------------2---------|----------------------|------------2---------|
-----------------2----|--3----2----2----2----|-----------------2----|
----------------------|----------------------|----------------------|
----------------------|----------------------|----------------------|
                                                               Я
 Amadd9
----------------------|----------------------|----------------------|
----------------------|----------------------|----------------------|
----------------------|----------------------|----------------------|
--2----2----0----0----|-----------------2----|--2----2----0----0----|
----------------------|--3----3----2---------|----------------------|
----------------------|----------------------|----------------------|
в_детс-ве спря- тал-    ся  в_шка-фу,   я     в_нем  жи-  ву   и

                       G#add9+/5+
----------------------|----------------------|----------------------|
----------------------|----------------------|----------------------|
----------------------|----------------------|----------------------|
-----------------0----|--0----0--------------|-----------------0----|
--3----3----2---------|------------3----3----|--2----2----0---------|
----------------------|----------------------|----------------------|
в_нем ум-  ру,   я      чув- ству- ю,  что      э-   то здесь, что  

                                               Amadd9
----------------------|----------------------|----------------------|
----------------------|----------------------|----------------------|
----------------------|----------------------|----------------------|
--0----0--------------|-----------------2----|--2----2----0----0----|
------------3----3----|--2----2----0---------|----------------------|
----------------------|----------------------|----------------------|
  э-  то   хо-  чет      ме- ня съесть. Я       не-  на-  ви-  жу  
                                                                     
----------------------|----------------------|----------------------|
----------------------|----------------------|----------------------|
----------------------|----------------------|----------------------|
-----------------2----|--2----2----0----0----|-----------------0----|
--3----3----2---------|----------------------|--3----3----2---------|
----------------------|----------------------|----------------------|
 свет лу-  ны,  ког-     да  две- над- цать    бьют  ча-  сы, ког-

 G#add9+/5+
----------------------|----------------------|----------------------|
----------------------|----------------------|----------------------|
----------------------|----------------------|----------------------|
--0----0--------------|-----------------0----|--0----0--------------|
------------3----3----|--2----2----0---------|------------3----3----|
----------------------|----------------------|----------------------|
 да   ко-  мне  та-     ко-   е   вот  пол-    зет, пол- зет, пол-

                        Amadd9
----------------------|--------------------|----------------------|
----------------------|--------------------|--1----0--------------|
----------------------|--------------------|------------2---------|
----------------------|---------------2----|-----------------2----|
--2----2----0----0----|--0-----------------|----------------------|
----------------------|--------------------|----------------------|
 зет, пол- зет, пол-    зет.      "Дальше свист Глеба"...

                                              G#add9+/5
----------------------|----------------------|----------------------|
----------------------|--1----0--------------|----------------------|
----------------------|------------2---------|----------------------|
--3----2----2----2----|-----------------2----|--3----2----2----2----|
----------------------|----------------------|----------------------|
----------------------|----------------------|----------------------|
                                                                     
----------------------|----------------------|----------------------|
--1----0--------------|----------------------|----------------------|
------------2---------|----------------------|----------------------|
-----------------2----|--3----2----2----2----|--0----0--------------|
----------------------|----------------------|------------3----2----|
----------------------|----------------------|----------------------|
                                       Пол-    зет, пол- зет, пол-    
 Amadd9
-------------------||
-------------------||
-------------------||
-------------------||
--0----------------||
-------------------||
 зет.      

Концовка играется сверху вниз:

 Amadd9
E||--0---------------|
B||--0---------------|
G||--5---------------|
D||--7---------------|
A||------------------|
E||------------------|

Подбор: Нт (nazlovragam@list.ru)
Порвали мечту  
Садись на меня
Мы будем не здесь
Когда эту грязь увидит заря
Но только не нас, но только без нас
Меня и тебя
Невинные дети не встретят в раю
Мою и твою мечту
Продали мечту
Купили мечту

Порвали мечту
Порвали мечту
Такие тупые, что хочется выть
А небо такое, что можно убить, 
Никто не заметит, когда я начну

Когда я начну
Наполню суровой реальностью сон
Когда я начну
Умоется кровью ваш Вавилон
И каждая тварь
От солнечной правды будет стонать от боли
И выть, когда я начну конкретно мочить
Они летят    
Cm(III)
Если не закрыть вовремя глаза
Можно подсмотреть эти чудеса
Где то далеко на краю земли
Летят облака в небе корабли

Ab(IV)/C Fm7

Припев:
  Fm7  Cm(III)      Cm/Bb
   За просто так за просто так
      Abmsj7      Cm/G
   За не за деньги ни за флаг
   Fm6(Db(IV))            Gsus      G
   Просто очень интересно как они себе летят
   Да просто так да просто так
   Да им самим лететь ништяк
   Они летят они летят
   Они летят а мы никак

Но еще больней на своей крови
Делеть облака на краю земли
И летят над ней стаи облаков
Добрых королей голубая кровь

Припев.

     Fm7            Cm/Bb           Abmaj7
1---|---|---    1-*-|---|---    1---|---|---
2-*-|---|---    2---|-*-|---    2-*-|---|---
3-*-|---|---    3-*-|---|---    3---|-*-|---
4-*-|---|---    4---|---|-*-    4---|-*-|---
5-x-|---|---    5-*-|---|---    5-x-|---|---
6-*-|---|---    6---|---|---    6-*-|---|---
 I   II  III     III IV  V       IV  V   VI

     Fm6             Gsus
1---|---|---    1---|---|-*-
2-*-|---|---    2-*-|---|---
3-*-|---|---    3---|---|---
4---|---|---    4---|---|---
5-x-|---|---    5---|---|---
6-*-|---|---    6---|---|-*-
 I   II  III     I   II  III