В начало
АБВГДЖЗИКЛМНОПРСТУФХЦЧШЭЮЯA-Z0-9
 
Воскресение - Звездная серия
Все сначала    
D
Я во что-то верил и чего-то ждал
В толчее бессмысленных дней,
Только я устал, только я не стал
Ни богаче, ни умней.
     A               G
Я менял любовь на любовь,
     A               G
Я искал добра от добра,
        E      A
Только вижу теперь, -
        D
Всё напрасно.

А когда-то был целым миром двор,
Был полон тайн чердак.
Семь тысяч дней прошло с тех пор,
Я не заметил как.
Видно что-то пора менять,
Только что, - не могу понять.
Обещали мне - всё впереди, -
Как знать...

И казалось мне, без моих идей
Мир не сможет прожить и дня,
Оказалось в мире полно людей,
И все умней меня.
Отчего же за столько лет
Так лениво меняется свет,
И бредут мудрецы
След в след.

И я хотел познать добро и зло,
Чтоб отличить добро от зла,
Мне повезло, - я смог понять,
Как труден шаг от слов к делам.
И как глупо рубить с плеча,
И как просто быть правым в речах,
И как страшно бывает начать
Всё сначала.
Пятна    
  Dm           B        C
Мне говорили громко и внятно,
Жизнь - это пятна. Это понятно.
Я говорил, да, это мне ясно,
Где было чисто, там станет грязно.

И в то же время кошмаром страшным,
Предан похмельным холодным потом.
Что-то ушло и осталось вчерашним.
Новый сон видишь. Где он? Да вот он.

Мне говорили разные люди,
Жизнь - это полосы разного цвета.
И если мы не были, значит мы будем
Так же, как будет зима после лета.

Мне говорили неоднократно
И между прочим, и между делом.
Мне говорили, жизнь - это пятна,
Черные пятна на чистом и белом,
А я говорил - очень приятно.

    Gm        F         A          Dm
   За день устав от строительства нового
    C       B                  Dm
   Город уснул по домам и квартирам.
               B        C       Dm
   Только что на день его и хватило,
    Dm    B        C         Dm
   Нового, ночью словно не стало бы.
Последняя любовь    
    C7
Я стоял от неё четырех шагах,
Я и не думал понравиться ей,
У меня память в занозах,
Душа моя синяках.
Я летел в пейзаж,
А угодил в натюрморт,
Ищу слова, а получаются числа,
       C7
И я хотел бы иначе,
Hо она отвечала:
D#7         F7        C7
"Пользуйся тем, что имеешь!

    F7
Молчи, танцуй под собственный пульс,
        C7
Hе разглядывай небо в упор.
    F7                        C7
Hа самом дне рождается голос,
Hо в это время вступает хор,
      F7
А когда ты поймешь, зачем качается маятник,
   F7
И чем кончается свет, -
    G7             F7
Дождись, пока объявят твой выход,
   G7                   F7
И делай что хочешь, но помни обо мне."

...Моя последняя любовь по прозвищу смерть

Сначала было страшно и смешно,
Потом наоборот,
А теперь станет надоедать.
Скажите, в этой канители,
кроме скуки и стыда
Hет ли чего-нибудь еще ?
Я не желаю искать в молочной реке
Остров из киселя,
Мне надо то, чего нет,
Hо она отвечала
"Пользуйся тем, что имеешь!

Молчи, танцуй под собственный пульс,
Hе разглядывай небо в упор.
Hа самом дне рождается голос,
Hо в это время вступает хор,
А когда ты поймешь, зачем качается маятник,
И чем кончается свет,-
Дождись, пока объявят твой выход,
И делай что хочешь, но помни обо мне."

Моя последняя любовь по прозвищу Смерть.
Снежная баба    
E7
Слепили бабу на морозе - руки, ноги, голова. 
Она стоит в нелепой позе - не жива и не мертва. 
          H7                          A
А мне другой не надо нынче, пусть красивых в мире тыщи, 
    H7                    A
Нет её белей и чище и другой такой не сыщешь 
             E7
Хоть ты тресни. 

Ах эта женщина весёлая, большая, вся из снега 
Для любви её душа, а ноги созданы для бега. 
И я бегу с любимой рядом, о, как глаза её ясны, 
И я томлюсь под нежным взглядом, доживёт ли до весны 
Такая краля ?! 

А весною станут немощными, тают зимние мечты 
И к нам тогда приходят девочки, с которыми на "ты". 
Берут нас теплыми руками, вместе с нашими мечтами, 
Как тисками и ночами шепчут нам "Останься с нами..." 
Вот, уж, вряд ли. 

Но ведь не вечно наше лето и октябрь неумолим. 
И конечно, мы об этом не особенно грустим. 
Нас очаруют и ослепят феи летних отпусков. 
Ах отчего они зимой не лепят снежных мужиков ?
Вариант 2    
        C                             G
Слепили бабу на морозе, руки,ноги,голова.
       C                                   G
Она стоит в нелепой позе, ни жива и ни мертва,
          F
А мне другой не надо нынче,
          G
Пусть красивых в мире тыщи,
     F
Нет ее белей и чище,
      G
И другой такой не сыщешь,
                     C      F G C F G
           Хоть ты тресни!


Aх эта женщина красивая, большая, вся из снега.
Для любви ее душа, а ноги созданы для бега.
Я бегу с любимой рядом,
Как глаза ее ясны!
Я томлюсь под нежным взглядом,
Доживет ли до весны
           Такая краля?


А весною станут мелочными зимние мечты.
К нам тогда приходят девочки, с которыми на "ты",
Берут нас теплыми руками
Вместе с нашими мечтами,
Как клещами, и ночами
Шепчут нам: "Останься с нами",
            Вот уж дудки!


Но не вечно наше лето и октябрь не умолим.
Ну конечно мы об этом не особенно скорбим.
Нас очаруют и ослепят
Феи летних отпусков.
Ах, отчего- ж они зимой не лепят
            Снежных мужиков!?
Кто виноват    
Вступление:
E||--10--9--/7----------|-10h12--9h10--/7---------|------------------------------|
H||------------10p8-----|-----------------10p8----|--10b11--8--10---8----------8-|
G||*--------------------|-------------------------|---------------9----7h9-7h9---|
D||*--------------------|-------------------------|------------------------------|
A||---------------------|-------------------------|------------------------------|
E||---------------------|-------------------------|------------------------------|

E||-------------------------||
H||-------------------------||
G||--7h9--------7----------*||
D||------------------------*||
A||-------------------------||
E||-------------------------||

Solo:
E|--12/10----12---12/10-----|--10----12--10-----------|
H|--------12------------12--|-----12--------11/12-----|
G|--------------------------|-------------------------|
D|--------------------------|-------------------------|
A|--------------------------|-------------------------|
E|--------------------------|-------------------------|

E|--10---------------------|----------------------------------------|
H|-----12/10--8--10---8----|----3-3h5-----10-11b12h10-----10----11--|
G|------------------9------|--4---------12-------------12----12-----|
D|-------------------------|----------------------------------------|
A|-------------------------|----------------------------------------|
E|-------------------------|----------------------------------------|
                                                               
E|-----12-10-12--14/10----------10-------------||
H|--12-----------------12-11/12----12/10--8----||
G|------------------------------------------9--||
D|---------------------------------------------||
A|---------------------------------------------||
E|---------------------------------------------||

E||--15-------14-------15-------14--------||--15-------14------------17----------------------------|
H||-----17-------17-------17-------17-----||-----17-------17------17----17b18--17b18--17b18--17b18-|
G||--------16-------16-------16-------16--||--------16---------16----------------------------------|
D||---------------------------------------||-------------------------------------------------------|
A||---------------------------------------||-------------------------------------------------------|
E||---------------------------------------||-------------------------------------------------------|

E|--17---------------------------------------|-----------------------------------------|
H|------15--12/10------------5b6----/10--8---|----3-5----------------------------------|
G|-----------------12--7b8-7---------------9-|-/4---------4---4-----6---6------9----9--|
D|-------------------------------------------|---------/5---5----/7---7----/10---10----|
A|-------------------------------------------|-----------------------------------------|
E|-------------------------------------------|-----------------------------------------|

E|------5------------------------|------5--3-3-5---7-7-7-7--|
H|---------8---7--5--------------|--3h5---------------------|
G|-----------------------4---4---|--------------------------|
D|---/7------7--------/5---5-----|--------------------------|
A|-------------------------------|--------------------------|
E|-------------------------------|--------------------------|

....АаааааАААууууААААаууууААААа БадабаадааабууддуууДааааааа......
E|-----------------------------------------------------|
H|-----------------------------------------------------|
G|-14b15r14--12----15-14-12-----------12-15-14-12------|
D|--------------14----------14--12-14-------------14---|
A|-----------------------------------------------------|
E|-----------------------------------------------------|


        Em
Кто виноват, что ты устал,
         G
Что не нашел, чего так ждал
      C
Все потерял, что так искал,
            Em
Поднялся в небо и упал.
        Em
И чья вина, что день за днем
        G
Уходит жизнь чужим путем,
    C                 H7
И одиноким стал твой дом,
           Em
И пусто за твоим окном.

       G                A
   И меркнет свет, и молкнут звуки,
      C7          A
   И новой муки ищут руки.
      G         A
   Если боль твоя стихает,
     C7                H7  Em Hm Em
   Значит будет новая беда.

Кто виноват, скажи ка, брат - один женат, другой богат,
Один смешон, другой влюблен, один дурак, другой - твой враг?
И чья вина, что там и тут, друг друга ждут и тем живут,
Но скучен день, и ночь пуста, забиты теплые места.

Кто виноват, и в чем секрет, что горя нет и счастья нет,
Без поражений нет побед, и равен счет удач и бед?
И чья вина, что ты один, и жизнь одна и так длинна, и так скучна,
А ты все ждешь, что ты когда-нибудь умрешь...

   И меркнет свет, и глохнут звуки, и новой муки ищут руки,
   И если боль твоя стихает, значит будет новая беда...

Подбор: Pashin Timophei (t_pashin@mail.ru)
По дороге разочарований    
A          E       F#m   D
По дороге разочарований,
A         E         F#m   D
Снова очарованный пройду. 
A        E              F#m   D
Разум полон светлых ожиданий, 
A           C#7      F#
Сердце чует новую беду. 
А чего же вновь меня тревожит 
Голос, что зовет из темноты: 
"Путь ещё не пройден, век не прожит 
Тою ли дорогой бродишь ты ?" 

D                      A
То ли темнота глаза таращит, 
D                      A   C#
То ли тишина скрывает крик: 
F#m                          C#m
"Где теперь искать тебя, пропащий, 
Hm           C#m       F#m  D
Оглянешься, ты уже старик ..." 

По дороге смутных побуждений, 
Там, где ветер яростен и свеж, 
Долог путь моих перерождений 
В дальний край несбывшихся надежд. 
Сбросив гору с плеч, расправил плечи. 
Гордо приказал себе: "Лети !" 
Если я попался вам на встречу, 
Значит вам со мной не по пути. 

Слышу голоса, что вечно правы, 
И пугаюсь этой правоты: 
"Для того роса, чтоб лечь на траву, 
Поутру с росой растаешь ты..." 

Поутру, дорогой откровений, 
Мимо родника девичьих слез, 
Выйду возле кладбища сомнений, 
На крутой отчаянья утёс. 
В лад весне и с осенью в ладу, 
В зыбкий час назначенных свиданий, 
Снова очарованный пойду 
По дороге разочарований.
Вариант 2    
G          H7      Em
По дороге разочарований
Снова очарованный пойду.
Разум полон светлых начинаний,
Сердце чует новую беду.

Отчего- же так меня тревожит
Голос, что зовет из темноты.
Путь еще не пройден, век не прожит,
Тою ли дорогой ходишь ты?

Припев:
   C                      G
   То ли темнота глаза таращит,
   C                       G   H7
   То ли тишина скрывает крик.
   Em                         Hm
   Где теперь искать тебя пропащий?
   Am           H7        Em
   Оглянешься- ты уже старик.

По дороге смутных побуждений,
Из страны взбесившихся невежд.
Долог путь моих перерождений
В тайный край несбывшихся надежд.
Сбросил гору с плеч, расправил плечи,
Гордо приказал себе: "Лети".
Если я попался вам на встречу,
Значит вам со мной не по пути.

Припев:
   Слышу голоса, что вечно правы
   И пугают сектой правоты.
   Для того роса, чтоб лечь на траву,
   По утру с росой растаишь ты.
   По утру дорогой откровений,

Мимо родника девичьих слез,
Выйду возле кладбища сомнений
Hа крутой отчаянья утес.
Hа ветру, с судьбою не в ладу,
В тайный час назначенных свиданий
Снова очарованный пойду
По дороге разочарований.

Учитывая, что почти вся песня исполняется на 3-х аккордах,
рекомендуется иногда вместо H7 делать Hm. Для разнообразия.
В жизни, как в темной чаще    
Am
В жизни, как в темной чаще, 
C
Каждый чуть-чуть пропащий, 
F7        E7
Как заблудившиеся дети. 
Am
Ищут друг друга слепо, 
C
Словно в бреду нелепом, 
F7       E7
Зовут того, кто не ответит. 

C         F
День у ночи во власти, 
C       F
Утро сулит ненастье,
A7        D9/7                G  E7
Грядущий день встаёт из мрака; 
Am
Может быть кто-то свыше, 
C
Горе твоё услышит, 
F7          E7                Am
Когда б ты только смел заплакать. 

В поисках вольной воли, 
Люди, как лодки в море, 
Бесцельно носятся по свету; 
В этих волнах безлюдных 
Встретится дважды трудно 
Тем, кто поверит слепо ветру. 

Где-то в забытых странах 
Цветут на лесных полянах 
Цветы твоих минувших вёсен. 
Плыл бы ты в лодке легкой, 
К тем берегам далеким, 
Когда б имел ты пару вёсел. 

В мире соблазнов много, 
Люди не верят в бога, 
Но кто из них не верит в чёрта ? 
Он обо всех нас помнит, 
Он каждой беды виновник, 
И это каждый помнит твёрдо.
Вариант 2    
Em
В жизни, как в темной чаще
G
Каждый чуть-чуть пропащий,
C         H        Em
Как заблудившиеся дети.
Em
Ищут друг друга слепо,
G
Словно в бреду нелепом
C      H              Em
Зовут того, кто не ответит.
G         C
День у ночи во власти,
G       C
Утро сулит ненастье,
Em       C                D
Грядущий день встает из мрака.
Em
Может быть кто- то свыше
G
Горе твое услышит,
C           H              Em
Когда б ты только смел заплакать.


В поисках вольной воли
Люди как лодки в море
Бесцельно носятся по свету
В этих волнах безлюдных
Встретиться дважды трудно
Тем, кто поверил слепо ветру.
Где- то в забытых странах
Цветут на лесных полянах
Цветы твоих ушедших весен.
Плыл бы ты в лодке легкой
К тем берегам далеким,
Когда б имел ты пару весел.
Я ни разу за морем не был    
A    G        F#m
Я ни разу за морем не был, 
        D        E      A
Сердце тешит привычная мысль,- 
       A      G     F#m
Там такое же синее небо, 
     D       E      A
И такая же сложная жизнь. 
       C#m             D
Может там веселей и богаче, 
       C#m     D       E 
Ярче краски и лето теплей. 
        A         G         F#m
Только так же от боли там плачут, 
          D       E      A
Так же в муках рожают детей. 

Может я не совсем понимаю 
Явной выгоды тайных измен. 
Отчего же я чаще теряю, 
Ничего не имея взамен. 
За какими же новыми благами, 
Вольным - воля, спасённому - рай, 
Всё бегут, притворяясь бродягами, 
Пилигримы в неведомый край. 

Что задумано, сделано, пройдено, 
Бросишь всё, ни о чем не скорбя. 
Только где-то кончается Родина, 
Если Родина есть у тебя. 
Оглянись на прощанье, и, - вот она 
Под ногами чужая земля. 
То ли птицы летят перелётные, 
То ли крысы бегут с корабля.
Друзьям    
      D            E            A
Мне грустно видеть, как уходят годы,
     D            E             A
Мне больно видеть, что моих друзей
     D           E          A
Так рано старят мелкие невзгоды
   D              E          A
Беда стареть, не делаясь мудрей.

Какими были мы с тобой когда-то,
Завидовали тем, кто старше нас
Как много мы с тобой с тех пор забыли,
Раскаянье придет, всему свой час.

Прости, мой друг, я так же слаб, как ты
Я с детства был помолвлен с неудачей.
Остались наши светлые мечты
На чердаке забытой летней дачи.

Я сам переживу свои печали,
С друзьями стану радости делить.
Как мало мы друзьям своим сказали
Так много успевая говорить...
Сон    
D
Снилось мне, 
            Em
Неожиданно выпал снег, 
   Hm        Em       F#m
В мире наступили тишина и свет, 
Hm          A           D
Свет и тишина, покой и белый снег. 
 Em           G                D
Жаль, что это только снилось мне. 

Снилось мне,
По притихшему городу,
Проплывает медленное облако,
Облако покоя в светлом городе.
Жаль, что это только снилось мне.

     D        Dmaj7   D7        D6
И теперь, наяву, я живу и не живу, 
D             C         Hm
 Сохранить пытаясь тишину. 
       D         Dmaj7
Но приходит за мной 
      D7             D6
Сумасшедший день земной
D         C          Hm
 И меня уводит за собой. 

Снилось мне, 
Что впервые за много лет, 
Счастье, почему-то, улыбнулось мне, 
Призрачное счастье в суматохе лет 
Жаль, что это только снилось мне. 

Снилось мне, 
Что печали кончаются, 
Люди одинокие встречаются. 
Встретятся, молчат и улыбаются 
Жаль, что это только снилось мне, 
Жаль ...
Вариант 2    

Вступление и припев:
A1 = e[030030]E
A2 = e[030020]E
A3 = e[030010]E
   A1      A2      A3       Am       A1               Am
e|-+--+--0-+--+--0-+--+--0-+--+---0-+--+---0--1-0-+-0-+--+--0-+--+--0---
H|-+---3-+--+--3-+--+--3-+--+---1-+--+---3-+--+---3-+-1-+-1-+-1-+-1-+-1-
G|-+-0-+--+--0-+--+--0-+--+---2-+--+---0-+--+--+--+--+--2-+--+--2-+--+--
D|-+--+--+--+--+--+--+--+--+--+--+--+--+--+--+--+--+--+--+----+--+--+---
A|-3-+--+--2-+--+--1-+--+---0-+--+---3-+--+--+--+--+--+----+--+--+--+---
E|-+--+--+--+--+--+--+--+--+--+--+--+--+--+--+--+--+---

Примечания:
1) можно делать для красоты и обратный ход перебора
2) П1 = D|-0-2-3(эта нота уже от F)

C                       Dm
Снилось мне: неожиданно выпал снег,
Am          Dm       Em
В мире наступили тишина и свет.
Am         G           C
Свет и тишина, покой и белый снег,-
Dm   П1 F               C
Жаль,   что это только снилось мне.

Снилось мне: по притихшему городу
Проплывает медленное облако.
Облако покоя в спящем городе,
Жаль, что это только снилось мне.

Припев:
    C     C/B     Am       Am/G#
   И теперь наяву я живу и не живу,
    C          C/B      Am
   Сохранить пытаясь тишину.
          C        C/B       Am            Am/G#
   Hо приходит со мной сумасшедший день земной
    C      C/B         Am     Am/G#
   И меня уводит за собой.

Снилось мне, что впервые, за много лет,
Счастье, почему-то, улыбнулось мне,
Призрачное счастье в суматохе лет,
Жаль, что это только снилось мне.

Снилось мне, что печали кончаются,
Люди одинокие встречаются,
Встретятся, молчат и улыбаются,
Жаль, что это только снилось мне.

Текст и подбор - Юрий Ларионов(пишите на адрес Alexei Emanov 2:5059/23.4)
Вариант 3    
Подбор: Александр Емелин, 2:5020/856.43

G                         Am7
Снилось мне - неожиданно выпал снег
Em           Am7      Hm
В мире наступила тишина и свет
Em          D           G
Свет и тишина, покой и белый снег
Am7      C                    G
Жаль, что это только снилось мне

Снилось мне - по притихшему городу
Проплывает медленное облако
Облако покоя в светлом городе
Жаль, что это только снилось мне

Припев:
     G        Hm7
И теперь, наяву
     G7        Cmaj7
Я живу и не живу
C            F         Em
Сохранить пытаюсь тишину
Hо приходит за мной
Сумасшедший день земной
И меня уводит за собой

Снилось мне, что впервые за много лет
Счастье почему-то улыбнулось мне
Призрачное счастье в суматохе лет
Жаль, что это только снилось мне

Снилось мне, что печали кончаются
Люди одинокие встречаются
Встретятся - молчат и улыбаются
Жаль, что это только снилось мне
Лето    
     C                 Am            C   Am
Всю ночь перелистывал ветер ушедшее лето,
  C                   Am             Em
Убавится за ночь на свете зелёного цвета.
    Dm               G7
Но ты не заметишь зимы приближенье
     Am
Ты смотришь в окно,
      F         G      Am
А глядишь на своё отражение.

Ты всё позабудешь и бросишь и спрячешься где-то.
И заново будешь выдумывать, что недопето.
Несут твою лодку потоки сомнений,
Ты очень спешишь,
Убегая от собственной тени.

       Dm         G
   Найди приют себе по нраву
        C          A7
   На светлых берегах.
      Dm              G
   И те, кто лгут, и те, кто правы,
    C                A7
   Тоже бродят впотьмах.
     Dm
   А если ты кому-то нужен,
      F                 G
   Забудь про лень и покой -
       C         Am
   Найди себе своё оружие -
     F      G     C
   Стань самим собой.
     F      G     Am
   Стань самим собой.

Всё уже было на свете, но этого мало.
Всё проходило и всё начиналось сначала.
Но то, что ушло не сумеет вернуться
И если уходишь на веки,
Спеши оглянуться.
Сколько было звезд    
  Bm                 Ddim
Сколько было звёзд, упавших с небосклона
   C#m7                E
Сколько было слёз, и сколько было стонов
   A              Am7                   E
Пламенный полёт звезды, сверкающей в дали
    C7/9  B7/9   E
И остывающей в пыли.
        A
В свой самый лучший день,
       C#7
В свой  самый лучший час
    F#m
Пускай любой из нас,
    Edim             E
Друзей ушедших тени

Из темноты зовут
 C#7/9
И пусть в разгар веселья
C7/9       B7/9              E
Не сводят с них счастливых глаз
Не спеши мой друг считать себя счастливцем, 
Оглянись, а вдруг, кругом чужие лица, 
Но не торопи тоску, теперь тебя никто не спросит: 
Кого любил, и скольких бросил. 

В свой самый лучший день, в сой самый лучший час, 
Пускай любой из нас, друзей ушедших тени 
Из темноты зовет, и пусть в разгар веселья 
Не сводит с них счастливых глаз.
Вариант 2    
Am7
Сколько было звезд,
  D7
Упавших с небосклона.
  Hm7
Сколько было слез,
    G7
О сколько было стонов.
  C7
Пламенный полет
     Am7        D7       Cm7
Звезды, свеpкающей в дали
       G  F     C
И остывающей в пыли.

Hе спеши, мой дpyг,
Считать себя счастливцем.
Оглянись, вокpyг-
Кpyгом чyжие лица.
Hо не тоpопи тоскy,
Теpеpь тебя ни кто не спpосит,
Кого любил и скольких бpосил.

        F
В свой самый лyчший день,
        A
В свой самый лyчший час,
    D
Пyскай любой из нас
    Hm          G7
Дpyзей yшедших тени
C           Am
Из темноты зовет.
   D7                    Cm7
И пyсть в pазгаp веселья
             G        F      C
Hе сводит с них счастливых глаз.
Так бывает    
       G        D
Так бывает, обещает
     Em            C
Утpо ясный теплый день,
      G              D
А к обедy дождь со снегом
     C        G
Затевает канитель.
D       G          D
Я-то знаю, что скpывает
      Em      C
Дождевая пелена:
        G            D
Смех и гоpе- все пpоходит,
        C Am       G    D
Вслед зиме глядит весна.


Бyдет вpемя для апpеля
После маpтовских ветpов,
Лишь бы сбылось все, что снилось,
Стал бы миp не так сypов.
Год за годом, повтоpяясь,
Вpемя пpямо деpжит пyть,
Можно все начать сначала,
Hичего нельзя веpнyть.

Помню, в детстве знал я сpедство
Hеyдачи избегать-
Стpоил кpепости из кpесел
И еще yмел летать.
Вот бы мне подняться в небо
И yсталость сбpосить с плеч.
Миp- согласье, волю- счастье
Где найти и как сбеpечь?

Счастье это только лето,
В ожидании весны,
Кpаткий миг во власти света,
Посpеди кpомешной тьмы
Цепь закатов и pассветов,
Долгих зим, коpотких лет.
Тень вопpоса, след ответа,
Кpылья есть, а счастья нет.
Вера, Надежда, Любовь    
      E              H
Мы искали незыблемых истин,
       A              E
Мы словами играли, горя,
       E                 H
Свято веря в могущество мысли,
         A               E
Только время потратили зря.
          F#            A
Звали в светлые дали и сами
      F#               A
Поднимались и падали вновь,
        F#            A
Но с упрямою волей невольно теряли
      C       D        E
Нашу Веру, Надежду, Любовь.

Мы живем в ожидании чуда,
Как весной из-под снега вода
Зажурчит непонятно откуда
Утечет неизвестно куда.
И бежим мы, срываемся с места,
И спешим мы, боимся отстать,
И залогом чудес в предрассветной завесе
Наша Вера сияет опять.

И, тревоги встречая с улыбкой,
Провожаем удачу без слёз,
Замечаем за каждой ошибкой
Ускользающий вечно вопрос.
Но не пряча от яркого света
Восхищенно распахнутых глаз
За Любовью идём как за вечным ответом
И отныне Надежда на нас.

В мире истин не выдумав новых
Верим - истина вечно жива.
И, в ответе за каждое слово,
Повторяем всё те же слова.
Всё, чем прошлое наше богато,
Светлой памяти слава, а кто?
Всё, чем наше с тобой настоящее внято,
Наши Вера, Надежда, Любовь.
Солдат Вселенной    
Для первых двух строчек 1 и 2 куплетов:
e |----------------------------------------------------0-|
H |----------------------------------------------------0-| G |------------------------------------------------1---1-|   x2 раза
D |---9-----9-----9-----9-----5-----5-----5-----2-2----2-| /
A |--9-9---9-9---9-9---9-9---5-5---5-5---5-5---2-2-----2-|
E |-7-----6-----5-----4-----3-----2-----1-----0--------0-|

Hm            Hm/A#
Я привык бродить один
       Hm/A        Hm/G#
И смотреть в чужие окна, 
    Gmaj       F#m
В суете немых картин 
     F                E
Отражаться в мокрых стёклах, 
       Em          F#
Мне хотелось бы узнать 
          G
Что вас ждет 
          F#          Hm
И что тревожит ваши сны 
         Bbsus2        D
Но вот опять приходит ночь 
           E7
И день напрасно прожит 

Мы устали от потерь, 
А находим слишком редко. 
Мы скитались, а теперь 
Мы живем в хрустальных клетках. 
И теперь чужая радость 
Не осушит наших слез 
И нам осталось 
Только ждать, какая малость, 
Ждать того, кто не придёт. 

Трудно ждать себе не веря, 
Все стерпеть ещё труднее. 
Зажгите свет, откройте двери, 
Быть может мы ещё успеем, 
Быть может мы ещё услышим, 
Как стучат сердца и я из дома вышел, 
И увидел, я один и только 
Снег на крышах. 

И я бежал из ледяного плена, 
Слишком мало на земле тепла, 
Но я не сдамся, я солдат вселенной, 
В мировой войне добра и зла. 
И грянул бой на целый белый свет 
И через миг земля очнулась ото сна 
А на земле, как всегда, 
То зима, то весна ...

Вариант:
   И я бежал из ледяного плена, слишком мало на земле тепла,
   Но я не сдамся, я -- Солдат Вселенной
   В Мировой борьбе Добра и Зла,
   И я обрушил тучи жгучих молний
   В этот мир молчания и льда...
   А на Земле как всегда,
   То Зима, то Весна.
Хороший парень    
      E
Если ты хороший парень,
Не так уж глуп и не подлец,
Я очень рад.
          A
И чтобы все об этом знали,
Ты твердишь про это с детства
         E
Всем подряд.
         H
И ты гордишься, вот потеха,
          A
Тем, что ты не хуже всех,
         E
Хороший парень, и больше ничего.

Если ты хороший парень,
Никому не помогаешь,
Не беда.
Ведь ты ни в чем не виноват,
И никому ты не мешаешь
Никогда.
И ты не нужен никому,
И потому приятен всем.
Хороший парень, и больше ничего.
         H                    E
Хороший парень, и больше ничего.

       E
И у тебя всё впереди,
И сердце доброе в груди,
           A
Ты всем хорош, но вот беда,
          E
Ты не поймешь, идут года.
              H
Но где твой след за столько лет
   A
Тебя на свете нет.

Если ты хороший парень,
Не так уж глуп и не подлец,
Я очень рад.
И чтобы все об этом знали,
Ты твердишь про это с детства
Всем подряд.
И ты гордишься, вот потеха,
Тем, что ты не хуже всех,
Хороший парень, и больше ничего.
Хороший парень, и больше ничего.
Случилось что-то    
Перебор (C):
E|---------0--------|---------0--------|---------0--------|---------0-------3-|      
H|-------1-----1----|-------1-----1----|-------1-----1----|-------1-------0---|                                       
G|-----0-----0---0--|-----0-----0---0--|-----2-----2---2--|-----2-------0-----|                                  
D|------------------|------------------|------------------|-------------------|  
A|--3---------------|--2---------------|--0---------------|--0----------------|   
E|------------------|------------------|------------------|-----------3-------| 

E|---------0--------|---------0--------|---------0--------|----------1--------|
H|-------1-----1----|-------1-----1----|-------1-----1----|--------1-----1----|
G|-----0-----0---0--|-----0-----0---0--|-----2-----2---2--|------2-----2---2--|
D|------------------|------------------|------------------|-------------------|
A|--3---------------|--2---------------|--0---------------|--0----------------|
E|------------------|------------------|------------------|-------------------|

E|---------1--------|---------1--------|---------1--------|----------1--------|
H|-------3-----3----|-------3-----3----|-------0-----0----|--------0-----0----|
G|-----2-----2---2--|-----2-----2---2--|-----0-----0---0--|------0-----0---0--|
D|--0---------------|------------------|------------------|-------------------|
A|------------------|--3---------------|------------------|-------------------|
E|------------------|------------------|--3---------------|--3----------------|

E|---------1--------|---------1--------|---------1--------|----------1--------|
H|-------3-----3----|-------3-----3----|-------0-----0----|--------0-----0----|
G|-----2-----2---2--|-----2-----2---2--|-----0-----0---0--|------0-----0---0--|
D|--0---------------|------------------|------------------|-------------------|
A|------------------|--3---------------|------------------|-------------------|
E|------------------|------------------|--3---------------|--3----------------|

Соло в начале песни:
E|--10h11h13--10-10---10-10h11h13--10-10---10-10-11-13--10-10--|-------------------------|
H|-------------------------------------------------------------|--10-11-13--11-11--------|
G|-------------------------------------------------------------|-------------------------|
D|-------------------------------------------------------------|-------------------------|
A|-------------------------------------------------------------|-------------------------|
E|-------------------------------------------------------------|-------------------------|

E|--10-11-13--10-10---10-10-11-13--10-10---10-10-11-13--10-10--|----------------------------|
H|-------------------------------------------------------------|--10-11-13-11---11-10-------|
G|-------------------------------------------------------------|----------------------12-10-|
D|-------------------------------------------------------------|----------------------------|
A|-------------------------------------------------------------|----------------------------|
E|-------------------------------------------------------------|----------------------------|

E|--10-11-13--10-10---10-11-13--10-10--10-11-13--10-10--|
H|------------------------------------------------------|
G|------------------------------------------------------|
D|------------------------------------------------------|
A|------------------------------------------------------|
E|------------------------------------------------------|

E|----------------------------|---------------------------------------------|
H|--11-10h11p10---------------|---------------------------------------------|
G|---------------12-10--------|-13b14-----14b15r14--11----11----------------|
D|----------------------------|------------------------12----12--10h12p10---|
A|----------------------------|---------------------------------------------|
E|----------------------------|---------------------------------------------|


Перебор (A):
                                                                  /----------1---------|

E|---------------------|------------------|----------------------|---------------------||
H|----------2----------|-----------2------|--------2-------------|----------------0----||
G|---(2)-------2---2---|---(4)---4---4----|------2-----2---2-----|-------2------1-----*||
D|--------2------2-----|-------2-------2--|----2---------2-------|---(2)------2-------*||
A|--0------------------|------------------|----------------------|---------------------||
E|---------------------|--4---------------|--2-------------------|--2-------0----------||


 /---------2-----------|

E|----------2----------||-----------------|-------------0--------|---------------------|
H|--5------------5-----||--------3--------|---------3------------|-------0-------0-----|
G|--------2------2-----||*---2-----2---2--|-----2-----2---2------|----------1----------|
D|------2-----2--------||*-----4-----4----|-------4---------4----|-----2-------2-------|
A|---------------------||--2--------------|--0-------------------|---------------------|
E|--2------------------||-----------------|----------------------|--0------------------|

 /------------1--------| /--------2-------|

E|---------------------||-----------------|----------------------|---------------------|
H|-----------0---------||---------0-------|----------------------|---------------------|
G|-------1------------*||----1-------1----|----------------------|---------------------|
D|----2----------2----*||-------2---------|----------------------|---------------------|
A|---------------------||-----------------|----------------------|---------------------|
E|--0------------------||--0--------------|----------------------|---------------------|

Solo: в начале песни
        2x                                     3x
E|--9h10h12-9-9--|--5h7h9--5-5-5----|--9h10h12-9---|--5-7h9--5-4-5-4----|
H|---------------|------------------|--------------|-----------------7--|
G|---------------|------------------|--------------|--------------------|
D|---------------|------------------|--------------|--------------------|
A|---------------|------------------|--------------|--------------------|
E|---------------|------------------|--------------|--------------------|
         2x                                             (/Sl)
E|--9h10h12-9-9--|--5--4h5--4-------|--/5----------|--8p7p5---5---------|
H|---------------|------------7--5--|------7--5----|--------7---5h7--7--|
G|---------------|------------------|----7------7--|--------------------|
D|---------------|------------------|--------------|--------------------|
A|---------------|------------------|--------------|--------------------|
E|---------------|------------------|--------------|--------------------|

Solo: в середине песни

E|----------------------------------9-10-9--9---------------------------------|
H|-9h10h12-9-9-9--9-10-12-9-------10------10-12-10---------10-9-10-12-9-10----|
G|-------------------------9-10-11----------------9h11-9--9-------------------|
D|------------------------------------------------------11--------------------|
A|----------------------------------------------------------------------------|
E|----------------------------------------------------------------------------|

                                .
E|------------------------------9------------------9---9--(9)-9--9-----9-----9------|
H|----------9--9-10---9-10-10h12-12-10-----0-(0)-10-10-10h12--10-10h12-10h12-10h12--|
G|--11-10-11-11-------------------------11-9h11-------------------------------------|
D|----------------------------------------------------------------------------------|
A|----------------------------------------------------------------------------------|
E|----------------------------------------------------------------------------------|


E|---------------------------------------------------------------------------|
H|--10---------------------------------------------10-9----------------------|
G|----11-9-10-11-9--9-------9-----11p9---11p9--9-------11--------------------|
D|----------------11-9-10-11-11p10-----11----11-11---------------------------|
A|---------------------------------------------------------------------------|
E|---------------------------------------------------------------------------|

                      |  |    |  |
                     \|/\|/  \|/\|/
Кода:   Аккорды   ||:  A      E  A:|| - Gtr.3

Gtr.1
                                                     4x
E||--0-2----------|----0----------|--0--------------|--0-------------------||-------H||------0-3-2----|------2-0-0----|----2-0-0-3-2----|----2-0-0-------------||        |
G||*--------------|------------2--|-----------------|----------2-2--------*||        |
D||*--------------|---------------|-----------------|---------------------*||        |
A||---------------|---------------|-----------------|----------------------||        |
E||---------------|---------------|-----------------|----------------------||        |
                                                                                     \ (вместе)
Gtr.2                                                                                /
                                                                                     |
E||----7-9999999--|--77-10-99999--|-----7-9999999---|--77------------------||        |
H||--10-----------|---------------|--10-------------|----9-10-10-10-10-10--||        | 
G||*--------------|---------------|-----------------|----------------------||        | 
D||*--------------|---------------|-----------------|----------------------||        |
A||---------------|---------------|-----------------|----------------------||        |
E||---------------|---------------|-----------------|----------------------||-------/

    A               A+7     F#m Dm7 E
Случилось что-то в городе моём,
     A           A+7             F#m  Gdim
Бульвары встрепенулись, словно крылья,
    Hm            Hm+7     E
А просто скука, смытая дождём,
   Hm         Dm+7           E
Была, как оказалось, просто пылью.

И понял я, что также я не волен
В случайных поворотах бытия,
Что я не одинок, что я не болен,
Растерянность уйдет, останусь я.

Что я останусь, но еще успею
Уйти, не оглянувшись, в пустоту.
И с кем расстанусь, тем пока не смею
Сказать, что мне уже невмоготу.

А мир пожалуй стоит изменить,
Пусть станем мы добрей и старомодней.
Доверчивей, наивнее любить,
И искренней, а стало быть свободней.

Но ведь случилось что-то в мире под дождем,
Пустыни раскаленные остыли.
Смеются люди в городе моём,
Дождем освобождённые от пыли.

   Gdim
+-+-+-+-+-+
| | 0 | 0 | II
+-+-+-+-+-+  V
| | | 0 | 0 VIII
+-+-+-+-+-+

Подбор соло: Pashin Timophei (t_pashin@mail.ru)
Есть у меня    
A         D     E     A
Есть у меня песни различные, 
          D     E           A
Есть необычные, вам ни к чему. 
A         D  E      A
Есть у меня песни обычные, 
A         D       E      A
Но безразличные мне самому. 

Есть песни для девочек, песни для праздников, 
Грустные песни и просто стихи, 
Романсы и танцы, какая вам разница. 
Много плохих, но они для глухих. 

В ворохе песен для каждого случая, 
Есть тихая радость и громкая грусть, 
Вопли и вздохи, и самая лучшая 
Песня не спета еще, ну и пусть. 

А если достигну я славы и почестей 
А после постигну, что все суета, 
Есть значит правда, она в одиночестве, 
Вечная правда, а в ней красота.
Вариант 2    
Intro: ход -G-A-H- C G D G  - 2 раза

          C  D        G
Есть у меня песни различные
Есть необычные, вам ни к чему
Есть у меня песни обычные,
Но безразличные мне самому.

Проигрыш: C G D G  - 2 раза

Есть песни для девочек, песни для праздников
Грустные песни и просто стихи
Романсы и танцы, какая вам разница?
Много плохих, но они для глухих

Проигрыш.

Ворохи песен для каждого случая,
Тихая радость и громкая грусть.
Вопли и вздохи - их самое лучшее
Песня не спета ещT, ну и пусть.

Проигрыш.

А если достигну я славы и почести,
А после постигну, что всT - суета
Есть значит правда в моTм одиночестве!
Вечная правда, а в ней красота.

Проигрыш.

Подбор: Макс Шаров (m_sharov@mail.ru)
Поезд    
  C
Мчится поезд, поезд мчится
G
И навязчиво маняще,
C         Em              Am
В такт колес в висках стучится:
C         Em           Am
"Завтра что-нибудь случится,
 C                     G
Завтра то, что нынче снится,
D                    Am    C D7 G
Может сбыться в настоящем."

В темноте, виском прижавшись
К запотевшему стеклу,
Я слежу, как разбежавшись
Мысль на воле оказавшись,
Обретает смысл и сжатость
Слова, сказанного вслух.

Путь бесцельный, миг беспечный,
Вижу город незнакомый.
И, доехав до конечной,
Тороплюсь на поезд встречный.
Верить хочется, что вечно
Все пути приводят к дому.

Торопись, беги, прощайся,
Не успеешь оглянуться,
Ни на горе, ни на счастье
Вверь, надейся, жди, отчайся,
Но возвращайся, возвращайся,
Если есть, куда вернуться...