В начало
АБВГДЖЗИКЛМНОПРСТУФХЦЧШЭЮЯA-Z0-9
 
Агата Кристи - Триллер. Часть 1
Кто украл мою звезду    
Вступление: Hm Hm Em F#

4|---0-2-5-4-0-2---2-5-4-0-2---|
5|---0-2-5-4-0-2---2-5-4-0-2---| x2
6|-----------------------------|

3|---0-2-5-4-0-2---2-5-4-0-2---|
4|---0-2-5-4-0-2---2-5-4-0-2---|
5|-----------------------------|

3|---0-4-4-4-2-4---4-4-4-2-4---|
4|---0-4-4-4-2-4---4-4-4-2-4---|
5|-----------------------------|

Hm
Я гляжу на небеса
Em              F#
Напрягая все глаза
Hm
А на небе ни звезды
Em              F#
В мире только я и ты

          Hm
И только небо знает правду
О том, как я тебя хочу,
           Em
О том, как я еще не верю
            F#
В то, что скоро полечу

И только небо знает правду,
Кто украл мою звезду
Только небо знает правду,
Но не скажет никому

Потерявшие мечту
Мы сидим на берегу
А у реки нет воды
В мире только я и ты

Если в небе ни звезды
В мире только я и ты
В океане нет воды
В мире только я и ты
Немного земли  
Улетели звезды далеко
Их уже рукою не достать
На душе томительно легко
Хочется кого-нибудь порвать

Когда убьют никто не уйдет, 
Когда возьмут, тебе не уйти, 
Немного боли, немного любви, 
Немного крови, немного Земли

Кто тебя оставил здесь одну
В небе одиноко и темно
Позови меня, я приползу
Потому что звезды далеко

Улетели звезды далеко
Их уже лопатой не добить,
Хочется кого-нибудь порвать
Хочется куда-нибудь любить
В интересах революции  
Я буду сильным
Без ваших долбанных машин 
Я буду сильным
Очаровательно крутым
Я буду классным
Когда взорву ваш магазин
Таким опасным
И сексуально заводным

В Интересах Революции
В Интересах Революции-и-и
В Интересах Революции
В Интересах Революции-и-и

Налейте крови
Бокалы синии пусты
Давайте выпьем
За обояние борьбы
За идеалы
Мы их ковали на огне
За ваших дочек
Которых я возьму себе

В Интересах Революции
В Интересах Революции-и-и
В Интересах Революции
В Интересах Революции-и-и

Пока ты чистый
Пока ты прешься по борьбе
Любая кукла 
Умрет от счастья на тебе
И пока ты веришь
Пока ты тянешь рычаги
И рвуца целки
Умирают целки от любви

В Интересах Революции
В Интересах Революции-и-и
В Интересах Революции
В Интересах Революции-и-и
Триллер    
   Gm        Hb          Eb D4
Помнишь это было прошлым летом?!
  Gm        Hb          Eb D4
Оно нам прилетела от любви,
   Gm        Hb            Eb D4
И мы как дураки смеялись в небо,
     Ebm                   Gm
В ответ услыша смех из под земли!

 О, если б ты поняла -
E|----6-----6-----6----6-----6-----6-
B|------3-----3----------3-----3-----
G|--6-----6-----6----6-----6-----6---
D|-----------------------------------
A|-----------------------------------
E|-----------------------------------

С каким огнём играла!
E|----6-----6-----6----6-----6-----6-
B|------3-----3----------3-----3-----
G|--6-----6-----6----6-----6-----6---
D|-----------------------------------
A|-----------------------------------
E|-----------------------------------

Но ты не понимаешь -             С ка-
E|----6-----6-----6----6-----6-----6-
B|------3-----3----------3-----3-----
G|--6-----6-----6----6-----6-----6---
D|-----------------------------------
A|-----------------------------------
E|-----------------------------------
  Ebm         Gm
 -ким огнём играешь!

  Gm               Hb            Eb D4
Теперь ты можешь знать, что мы летали,
  Gm        Hb           Eb D4
Ныряя со смертельной высоты,
  Gm        Hb          Eb D4
И колокол стонал, а мы играли.
  Ebm                   Gm
Я падал, падал, падала и ты...
А если б ты поняла -
С каким огнём играла!?
Но ты не понимаешь -
    Ebm          Em
С каким огнём играешь!?

Припев:
     G            C
   Кого теперь ты любишь!?
      H           Em
   Когда всё понимаешь...
      G            C
   Кого теперь ты дуришь?!
       H           Em          G            C
   Когда ты не играешь...
       H           Em
   Когда ты не играешь?!

   Em          G            C H
И для меня не будет больше света,
    Em           G         C    H
Не будет больше неба и земли!
     Em          G            C H
Чем помнишь это было прошлым летом!?
 Cm                     Dbm
Оно нам прилетело от любви!

Припев:
      E            A
   Кого теперь ты любишь!?
      G#m          Dbm
   Когда всё понимаешь...
      E            A
   Кого теперь ты губишь!?
      G#m          Dbm
   Когда ты не играешь...
   Кого теперь ты любишь!?
   Когда всё понимаешь...
   Кого теперь ты губишь!?
   Когда ты не играешь...
   Когда ты не играешь...


  D4     Ebm
--3--   --2--
--3--   --4--
--1--   --3--
--0--   --1--
--0--   --1--
--0--   --1--
Любовь идет на дело    
Hm                    Em
Ночь и тишина я слышу каждую звезду
 Hm                   C
Мы идем с ума ломая двери в темноту
        Em                  Hm
Пока уснула в небе желтая луна
         F#m                     Hm
И только вору только вору не до сна

Мы сошли с ума и мы танцуем на краю
Мы воруем ночь, а я на шухере стою
Когда в саду Царицы тайны темноты
Мы срываем черные цветы

 G        Hm    G         Hm
Запирайте окна запирайте двери
 G          Hm     F#        E
Запирайте двери на улице темно
         Em           Hm
Когда любовь идет на дело
   Em           Hm     Em           Hm
Любовь идет на дело любовь идет на дело
   F#     E
Легко легко...

Мы сошли с ума но мы не скажем никому
Мы сошли с ума и мы шагаем в темноту
Найти любовь и посмотреть в ее глаза
Чтобы до конца сойти с ума

Запирайте окна запирайте двери
Запирайте двери на улице темно
Когда любовь идет на дело
Любовь идет на дело любовь идет на дело
Легко легко...

Запирайте окна запирайте двери
Запирайте двери на улице темно
Когда любовь идет на дело
Любовь идет на дело любовь идет на дело
Легко легко...
Kill Love  
На точке двух миров
Стояли мы в огне
Пылали облака, и ты сказала 
"Давай убьем любовь
Не привыкай ко мне
Давай убьем пока ее не стало

Ты лучше
Ты круче
Ты сможешь 
Я в курсе".

Давай убьем любовь,
Я должен стать сильней
На точке двух миров
Реальный воин
Я должен быть один
Я должен бить больней
Давай убьем любовь
Свободой воли

Ты лучше
Ты круче
Ты сможешь
Ты сможешь.
Днем и ночью    
      A# |113331|
D5+/sus4 |xx0333|=|xx7786|
   D#maj |xx1333|=|xx8786|

            Dm             D7               A# D5+/sus4        Dm A
|----10-------------10--------------13-10---------------------------
|--10--10---------10--10----------10-----10-9-----9/13~12~11~10~~\--
|--------10-9-----------10-11---------------------------------------
|-------------------------------------------------------------------
|-------------------------------------------------------------------
|-------------------------------------------------------------------

            Dm             D7               A# D5+/sus4        Dm A
|----10-------------10--------------13-10---------------------------
|--10--10---------10--10----------10-----10-9-----9/13~12~11~10~~\--
|--------10-9-----------10-11---------------------------------------
|-------------------------------------------------------------------
|-------------------------------------------------------------------
|-------------------------------------------------------------------

Dm
Надо еще
Надо чуть-чуть
Надо найти
Правильный путь
День кусает ночь
Ночь сосет меня
Вот она моя
Борьба

  Dm
  Днем и ночью днем и ночью
|-10-----------10-----------
|----10-----------10--------
|-------10-----------10-----
|----------12-----------12--
|---------------------------
|---------------------------

  D7
  Не могу  реально кончить
|-8--------8--------
|---7--------7------
|-----7--------7----
|-------7--------7--
|-------------------
|-------------------

  A#        D5+/sus4     Dm           A
  Ты хитра, но я не расколюсь
|-6---------6------------10------------------9--
|---8---------8-------------10------------10----
|-----7---------7--------------10-------9-------
|-------5---------8---------------12--7---------
|-----------------------------------------------
|-----------------------------------------------

  Dm
  Только нет, не этой ночью
|-10-----------10-----------
|----10-----------10--------
|-------10-----------10-----
|----------12-----------12--
|---------------------------
|---------------------------

  D7
  Всё, хорош, короче
|-8-----------8--------
|---7-----------7------
|-----7-----------7----
|-------7-----------7--
|----------------------
|----------------------

  A#               D5+/sus4
  Я пойду и застрелюсь.  Ты хочешь
|--6-------------------------------|
|----8-----------------------------|
|------7---------------------------|
|--------8-5-----------------------|
|----------------------------------|
|----------------------------------|


Dm
Надо поспать
Надо уснуть
Надо найти
Правильный путь
Где поднажать
Что повернуть
Надо найти
Правильный путь

Проигрыш:
 Dm D7 A# D5+/sus4 Dm A

   Dm                 D7                 A#       D5+/sus4 Dm        A
|--------------------------------------------------------------------------------|
|--------------------------------------------------------------------------------|
|--/10~9~7~~7/10~9~7~~7/11~8~5~~5/11~~5~~5/12~~3~~3/10~~3~~3/10~9~7~~7\6/8/9/10--|
|--------------------------------------------------------------------------------|
|--------------------------------------------------------------------------------|
|--------------------------------------------------------------------------------|

 Dm
  Днем и ночью днем и ночью
|-10-----------10-----------
|----10-----------10--------
|-------10-----------10-----
|----------12-----------12--
|---------------------------
|---------------------------

  D7
  Не могу  реально кончить
|-8--------8--------
|---7--------7------
|-----7--------7----
|-------7--------7--
|-------------------
|-------------------

  A#        D5+/sus4     Dm           A
  Ты хитра, но я не расколюсь
|-6---------6------------10------------------9--
|---8---------8-------------10------------10----
|-----7---------7--------------10-------9-------
|-------5---------8---------------12--7---------
|-----------------------------------------------
|-----------------------------------------------

  Dm
  Только нет, не этой ночью
|-10-----------10-----------
|----10-----------10--------
|-------10-----------10-----
|----------12-----------12--
|---------------------------
|---------------------------

  D7
  Всё, хорош, короче
|-8--------8--------
|---7--------7------
|-----7--------7----
|-------7--------7--
|-------------------
|-------------------

  A#        D5+/sus4
  Я пойду и застрелюсь,  ты кончишь
|-6---------6----------------------
|---8---------8--------------------
|-----7---------7------------------
|-------5---------8----------------
|----------------------------------
|----------------------------------

  Dm
  Днем и ночью днем и ночью
|-10-----------10-----------
|----10-----------10--------
|-------10-----------10-----
|----------12-----------12--
|---------------------------
|---------------------------

  D7
  Не могу  конкретно кончить
|-8--------8--------
|---7--------7------
|-----7--------7----
|-------7--------7--
|-------------------
|-------------------

  A#        D5+/sus4     Dm           A
  Ты хитра, но я не расколюсь
|-6---------6------------10------------------9--
|---8---------8-------------10------------10----
|-----7---------7--------------10-------9-------
|-------5---------8---------------12--7---------
|-----------------------------------------------
|-----------------------------------------------

  Dm
  Только нет, не этой ночью
|-10-----------10-----------
|----10-----------10--------
|-------10-----------10-----
|----------12-----------12--
|---------------------------
|---------------------------

  D7
  Всё, хорош, короче
|-8----8------------8--
|-7----7--------7------
|-7----7----------7----
|-------------7--------
|----------------------
|----------------------

  A#        D5+/sus4
  Я пойду и застрелюсь.  Ты кончишь
|--6-------------------------------|
|----8-----------------------------|
|------7---------------------------|
|--------8-5-----------------------|
|----------------------------------|
|----------------------------------|


            Dm             D7               A# D5+/sus4        Dm A
|----10-------------10--------------13-10---------------------------
|--10--10---------10--10----------10-----10-9-----9/13~12~11~10~~\--
|--------10-9-----------10-11---------------------------------------
|-------------------------------------------------------------------
|-------------------------------------------------------------------
|-------------------------------------------------------------------

            Dm             D7               A# D5+/sus4         Dm
|----10-------------10--------------13-10-----------13~-12~-11~-10__\|
|--10--10---------10--10----------10-----10-9-----9/13~-12~-11~ 10__\|
|--------10-9-----------10-11-----------------------13~-12~-11~-10__\|
|---------------------------------------------------------------12__\|
|---------------------------------------------------------------12__\|
|--------------------------------------------------------------------|

Примечание: Вместо D5+/sus4 можно D#maj

Подбор: Иванов Евгений (Стерлитамак) ivanoves@rambler.ru
Садо-мазо  
Плюнула огнем и зашипела
Догорая черная свеча
У тебя лицо невинной жертвы
И немного есть от палача

Такая типа садо-мазо
Просто садо-мазо
Вся ты садо-мазо
Просто садо-мазо
Даже садо-мазо
Сердце садо-мазо
Бьется садо-мазо
Типа садо-мазо

Ты куда летишь, печальный призрак
Вот он я, готический твой принц
Ты выглядишь как труп своей собачки
Которую насиловал фашист

Какое небо звезды небо звезды
Даже сердце бьется, бьется...

Какое небо садо-мазо
Просто садо-мазо
Звезды садо-мазо
Просто садо-мазо
Даже садо-мазо
Сердце садо-мазо
Бьется садо-мазо
Типа садо-мазо.
Порвали мечту  
Садись на меня
Мы будем не здесь
Когда эту грязь увидит заря
Но только не нас, но только без нас
Меня и тебя
Невинные дети не встретят в раю
Мою и твою мечту
Продали мечту
Купили мечту

Порвали мечту
Порвали мечту
Такие тупые, что хочется выть
А небо такое, что можно убить, 
Никто не заметит, когда я начну

Когда я начну
Наполню суровой реальностью сон
Когда я начну
Умоется кровью ваш Вавилон
И каждая тварь
От солнечной правды будет стонать от боли
И выть, когда я начну конкретно мочить
Пока-пока  
Унылые усталые признанья на крови
Оставьте их тому,
Кто, может, вам поверит
Роняйте лед, плесните яд
На свежие мозги
Я знал, что все не так
Я сам себе не верил

Пока-пока
Цыплята табака
Вы были как одна любовь до гроба
До гроба были вы, а после нифига
А мне уже пора, пока

"Иветта, Лизетта, Жанетта, Жоржетта,
Мюзета, Полетта, Мариэтта - это..."

Я соберу со дна останки самого себя
И снова выживу без боли и унынья
И я найду, ее найду, она одна моя
А все еще стоит, а сердце не остыло.
Звездочет  
Смеясь, глазеют дети
На павшую звезду
И улетает пепел в подзорную трубу
И водку пьют крестьяне, танцуя у костра
Убили звездочета 
Порвали колдуна

А как бы мне жизнь подлинней чуть прожить
Как бы кайф растянуть
А как бы мне новыми никтами сшить
Мой немыслимый путь

Горят слепые книги
Волшебные слова
И главные секреты уходят в никуда
И тайна строит небу печальные глаза
Убили звездочета
Порвали подлеца