В начало
АБВГДЖЗИКЛМНОПРСТУФХЦЧШЭЮЯA-Z0-9
 
Агата Кристи - Опиум
ХaлиГалиКришна    
Когда я пришел, ты уже уплыла
Я забыл, что ты - пароход.
Я ведь сам тебе дал это море любви,
А оно превратилось в ляд.
Куда ты плывешь, крыша моя?
В какие реки, в какие моря?
За какою кормой бьят волна за волной?
Я плыву за тобой, лечу за тобой,
И я хочу найти, что успел потерять,
Мне нужно догнаться, чтобы догнать.
И в поисках крыши летает душа
То в самый низ, то в самые верха.

     Em              Am
    Халигаликришна, халигалирама,
      E
    Трали-вали крыша, где ты будешь завтра?
         Am                   Em
    Да где ты будешь завтра, тута или тама?
     D               H
    Халигаликришна, халигалирама.

      Em
Люди бесятся с водки, люди бесятся с жиру,
      F#
Люди думают вечно одно.
      G
Люди тычут в спину, их пальцы горят,
       C                 Am
А в ботинки стекает дерьмо.
            Em
Да только мне плевать: ведь это их дерьмо,
                     A
Это их проблема, а мне все равно
      Am               Em
И задравши хвост, я лечу за тобой,
    F#          H
Я ужасно тупой, очень тупой.
        Em
Но я могу найти то, что смог потерять,
                        Am
Мне не нужно крыльев, чтобы летать -
   Am            Em
Хорошая крыша летает сама
     F#             H
И в самый низ, и в самые верха.
Тоска без конца    
 |:Em H:| |:Am Em G:|

     Am
 Улыбаются губки, улыбаются ручки,
     Em               G
 Улыбаются ножки и живот, и спина.
     Am
 Улыбаются кошки, улыбаются мышки,
     Em             G
 Улыбаются черви в куче дерьма.
Am                   Em  G
 А-у-у, тоска без начала.
    Am               G
 А-у-у, тоска без конца.

 И влюбляются вдруг в подсудимого судьи,
 И влюбляешься ты, а в другого жена.
 И влюбляются кошки, и влюбляются мышки,
 И влюбляются черви в кучу дерьма.
 А-у-у, тоска без начала.
 А-у-у, тоска без конца.

     Em                              H
     Елы-палы, киска, вся такая ерунда. А-а-а
      Em                                  H
     Не печалься, киска, елы-палы, иди сюда.

 Am Em G Am Em G

 Умирают гады и хорошие люди,
 Умирают больные и доктора.
 Умирают кошки, умирают мышки,
 Умирают черви в куче дерьма.
 А-у-у, тоска без начала.
 А-у-у, тоска без конца.

 Умирают гады и хорошие люди,
 Умирают больные и доктора.
 Умирают кошки, умирают мышки,
 Умирают все...
Абордаж    
  Am
Браво, маркиза, что за луна?
Ленива капризна и холодна.
Музыка Штрауса еле слышна,
                               G
Возьмите бокал, я налью вам вина.

      Am
    Трах-трах, тибетибедах. Трах-трах, тибетибедах.
    Трах-трах, тибетибедах. Трах-трах, тибетибедах.
      D
    Трах-трах, тибетибедах. Трах-трах, тибетибедах.
      H
    Трах-трах, тибетибедах. Трах-трах.
      Am
    Трах-трах, тибетибедах. Трах-трах, тибетибедах.
    Трах-трах, тибетибедах. Трах-трах, тибетибедах.
      D
    Трах-трах, тибетибедах. Трах-трах, тибетибедах.
      H
    Трах-трах, тибетибедах. Трах-тибедах.

Я люблю запах ваших духов,
Бальные танцы вино и любовь.
Силь ву пле, мадам, мой экипаж -
Там я возьму вас на абордаж.
Вечная любовь    
Am C Em G

   Am
В небо уносятся горькие жалобы
  Em            Am
Траурных колоколов.
  Am
Плачут монахи, рыдают монахи -
  Em            Am
Они потеряли любовь.
Прыгают в пляс, задравши рясы,
От края до края зари.
Смотрят на небо и ищут по книгам
Следы настоящей любви.

                  E7            Am
    Но где она живет, вечная любовь?
                       C  E7 Am
    Уж я то к ней всегда готов.
              E7              Am
    Вечная любовь, чистая мечта,
                C E7 Am
    Нетронутая тишина.

Римский папа разбил все иконы
И сам взорвал Ватикан.
Мучая зрение, ищет знамение
И проклинает Ислам.

    Только не вернуть вечную любовь
    Слепое знамя дураков.
    Вечная любовь, чистая мечта,
    Нетронутая тишина.

    О, вечная любовь,
    Слепое знамя дураков.
    Вечная любовь, чистая мечта,
    Нетронутая тишина.
    Но где она живет, вечная любовь?
    Уж я то к ней всегда готов.
    Вечная любовь, чистая мечта,
    Нетронутая тишина.

Черная луна    
   Gm
Задумывая чярные дела
    D#
На небе ухмыляется луна.
    D                      Gm
А звязды, будто мириады стрел.
Ловя на мушку силуэты снов,
   D#
Смеятся и злорадствует любовь
   D                       Gm
И мы с тобой попали на прицел.

    Gm
    Я же своей рукою
    Сердце твое прикрою -
     Cm                  D
    Можешь лететь и не бояться больше ничего.
     Gm
    Сердце твое двулико,
    Сверху оно набито
     Cm                     D
    Мягкой травой, а снизу каменное, каменное дно.

Смотри же и глазам своим не верь -
На небе затаился чяерный зверь -
В глазах его я чувствую беду.
Не знал и не узнаю никогда
Зачем ему нужна твоя душа -
Она гореть не сможет и в аду.
Вариант 2    
Intro:
Play 3 Times
Let ring

e||-----2-3-----2-3-|-----2-3-----2-3-|-----2-3-----2-3-|-----2-3-----2-3-||
B||---3-------3-----|---3-------3-----|---4-------4-----|---4-------4-----||
G||-0---------------|-0---------------|-0---------------|-0---------------||
D||-----------------|-----------------|-----------------|-----------------||
A||-----------------|-----------------|-----------------|-----------------||
E||-----------------|-----------------|-----------------|-----------------||

End of intro, play once
Let ring

e||-----2-3-----2-3-|-----2-3-----2-3-|-----2-3-----2-3-|-7-7-5-5-3-3-1---||
B||---3-------3-----|---3-------3-----|---4-------4-----|-8-8-7-7-5-5-3---||
G||-0---------------|-0---------------|-0---------------|-----------------||
D||-----------------|-----------------|-----------------|-----------------||
A||-----------------|-----------------|-----------------|-----------------||
E||-----------------|-----------------|-----------------|-----------------||

Verse:

Gm Eb D Gm

Chorus:

Gm Gm Cm D

Fill In's
Let ring

e|-----2-3---------| e|-----2-3---------| e|-7-7-5-5-3-3-1---|
B|---3-------------| B|---4-------------| B|-8-8-7-7-5-5-3---|
G|-0---------------| G|-0---------------| G|-----------------|
D|-----------------| D|-----------------| D|-----------------|
A|-----------------| A|-----------------| A|-----------------|
E|-----------------| E|-----------------| E|-----------------|
Вариант 3    
Em                  Am
Задумывая черные дела,
Em                  Am
Hа небе ухмыляется луна,
    C          H7                 Em
А звезды - это мириады(миллиарды?) стрел.

Ловя на мушку силуэты снов,
Смеется и злорадствует любовь,
И мы с тобой попали на прицел.

Em
Я же своей рукою
Сердце твое прикрою -
Am
Можешь лететь
       C            H7
И не бояться больше ничего.
Em
Сердце твое двулико,
Сверху оно набито
Am
Мягкой травой,
        C        H7        Em
А снизу каменное,каменное дно...

Смотри и глазам своим не верь -
Hа небе затаился черный зверь -
В глазах его я чувствую беду.
Не знал и не узнаю никогда,
Зачем ему нужна твоя душа -
Она гореть не сможет и в аду.

Я же своей рукою
Сердце твое прикрою,
Можешь лететь
И не бояться больше ничего.
Сердце твое убито,
Сверху оно набито
Мягкой травой,
А снизу каменное,каменное дно.
А снизу каменное,каменное дно.
Em Em Am C        H7        Em
         Каменное,каменное дно.
Em Em Am C        H7
         Каменное,каменное...
Сказочная тайга    
     S=19, T=130, V=01, 21

    Вступление: Em Am H7 Em } 4 раза

   Em               F#
Когда я на почте служил ямщиком
   Am                H7
Ко мне постучался косматый геолог
   Em               F#
И глядя на карту на белой стене
Am            H7
Он усмехнулся мне
Он  рассказал как плачет тайга
Без мужика одна-одинока
Нету на почте у них ямщика
Значит нам туда дорога значит нам туда дорога

     Припев

Em              Am
Облака в небо спрятались
 H7            Em
Звезды пьяные смотрят вниз
                Am
И в дебри сказочной тайги
H7      Em
Падают они   проигр.


     Чярные сказки белой зимы
     На ночь поют нам большие деревья
     Чярные сказки про розовый снег
     Розовый снег даже во сне
     А ночью по лесу идет Сатана
     И собирает свежие души
     Новую кровь получила зима
     И тебя она получит
     И тебя она получит

     |:Em Am H G Em A H:| - припев
Вариант 2    
      Dm        Gm      A         F       Dm        G     A     Dm
|-----------5-8-6-------5-------6-5-------------5-8-7-----9-----10---------
|-----------------------------5--------------------------------------------
|-----7---7-----------------6-------------7---7----------------------------
|--------------------------------------------------------------------------
|--------------------------------------------------------------------------
|--------------------------------------------------------------------------


  Такой еще ход.         Соло.
     A7                   Em           F/E         B/E          Em7
|----5-5---------------|--------------------------------------------------|
|--------8-8-6-6-5-5---|--8--7-----7-8-10-8--------7----------7-8-7-------|
|----------------------|--------9------------9--------9--8--9--------7----|
|----------------------|--------------------------------------------------|
|----------------------|--------------------------------------------------|
|----------------------|--------------------------------------------------|


                                           Втор
  Em            A          B7
|----0-----------------0--------------11-|--12\----|
|-0-------------12-10--------------12----|---------|
|-------11--12-------------12--11--------|---------|
|----------------------------------------|---------|
|----------------------------------------|---------|
|----------------------------------------|---------|
Вариант 3    
Вместо слов пpипева:
-3-2-0--2-3-5-3-0--2-0---0-2-3-2--------0-2-3-7-5-0--3-2-7-5-0(12)- 1стp
-----------------------4---------3--3-0---------------------------- 2стp
Пpоигpыш посpедине куплета:
 -7-7--5-5--3-3--2-0- 1стp

                          Проигрыш на басу

4|---------|---------------|---------------|-----------------------|
5|---------|---------5-----|-----2-3---2-3-|-2-3-5-7---5-7-5-------|
6|-5-0-3-5-|-0-5-4-3---2-3-|-2-3-----3-----|---------7-------8-7-5-|

Dm Gm A F D G A Dm

    Dm               E7
Когда я на почте служил ямщиком,
     A                Dm
Ко мне постучался косматый геолог
    B                Dm
И глядя на карту на белой стене
 E7             A
Он усмехнулся мне.
Dm                   E7
Он рассказал, как плачет тайга,
 Gm          A
Без мужика она одинока.
 Dm              E7
Hету на почте у них ямщика,
  Gm
Значит нам туда дорога,
  A
Значит нам туда дорога.

    Dm               Gm
   Облака в небо спрятались,
      A             F
   Звезды пьяные смотрят вниз
         Dm          G
   И в дебри сказочной тайги
     A
      Падают они.

|:Dm Gm A F Dm G A Dm:|

Черные сказки белой зимы
Hа ночь поют нам большие деревья
Черные сказки про розовый снег
Розовый снег даже во сне
А ночью по лесу идет Сатана
И собирает свежие души
Hовую кровь получила зима
И тебя она получит
И тебя она получит

|:Em Am H G Em A H:| - припев
Вариант 4    
Вступление:
        Dm               Gm                 A                  F
E |----1---1---1---1---3---3---3---3---0---0---0---0---1---1---1---1-------|
B |-----3---3---3---3---3---3---3---3---2---2---2---2---1---1---1---1------|

        Dm               Gm                 A  
E |----1---1---1---1---3---3---3---3---0---0---0---0---------------------------|
B |-----3---3---3---3---3---3---3---3---2---2---2---2--------------------------|

        Dm               Gm     A                 F     Dm                 Gm     A
E |------------------------------------------------------------------------------------------------|
B |------------------------------------------------------------------------------------------------|
G |-------------------5---3------2------------3---2----------------------5---4------6---7----------|
D |----0------0---3--------------------0---3------------0------0---3-------------------------------|

 Dm                     E(E7)
Когда я на почте служил ямщиком
 A(A7)                  Dm
Ко мне постучался косматый геолог
 B                      Dm
И глядя на карту на белой стене
(A7)  E(E7)     A
Он усмехнулся мне

E |----4^5-5-3-3-----------------|
B |-------------------6-6-5-5-3--|

 Dm                     E(E7)
Он рассказал как плачет тайга
 Gm                   A
Без мужика она одинока
 Dm                      E
Нету на почте у них ямщика
Gm
Значит нам туда дорога
 A(A7)
Значит нам туда дорога

D |----6^7-7-5-5-----------------|
A |--------------------8-8-7-7-5-|

Припев:
    Dm             Gm
   Облака в небо спрятались
    A                      F
   Звезды пьяные смотрят вниз
          Dm               Gm
   И в дебри сказочной тайги
    A      Dm
   Падают они

Черные сказки белой зимы
На ночь поют нам большие деревья
Черные сказки про розовый снег
Розовый снег даже во сне
А ночью по лесу идет Сатана
И собирает свежие души
Новую кровь получила зима
И тебя она получит
И тебя она получит

Припев.

дальше меняется тональнасть с ре-минра на ми-минор......Dm  на  Em.....

        Em                 Am          H                            G
B |-----------------------------------------------------------------------------------------------| 
G |--------------------------2--------------------------------------------------------------------|
D |----5---4---2---4---5--5---2------4---2---1---2---4---5---4------------------------------------|
A |---------------------------------------------------------------------------5-------------------|

       Em                 Am  H           E 
B |------------------------------------------4^5---------------------------------------------------|
G |-------------------4---2------------4-----------------------------------------------------------|
D |------2---4---5---------2---44------------------------------------------------------------------|
A |----2-------------------------------------------------------------------------------------------|

Em                    Am
Облака в небо спрятались
H                         G
Звезды пьяные смотрят вниз
Em                       Am
И в дебри сказочной тайги
H          Em
Падают они 

Vladik (подбор) v-l-a-d-i-k@ukr.net
Вариант 5    
Вступление:
Dm        Gm      A         F    
|-----------5-8-6-------5-------6-5----
|-----------------------------5--------
|-----7---7-----------------6----------
|--------------------------------------
|--------------------------------------
|--------------------------------------
    Dm        G     A     Dm
|---------5-8-7-----9-----10---------
|------------------------------------
|---7---7----------------------------
|------------------------------------
|------------------------------------
|------------------------------------

|----5-5--------------- 
|--------8-8-6-6-5-5--- 
|---------------------- 
|---------------------- 
|---------------------- 
|---------------------- 

Dm               E7
Когда я на почте слyжил ямщиком,
A                Dm
Ко мне постyчался косматый геолог
B                Dm
И глядя на каpтy на белой стене
E7             A
Он yсмехнyлся мне.

|----5-5--------------- 
|--------8-8-6-6-5-5--- 
|---------------------- 
|---------------------- 
|---------------------- 
|---------------------- 

Dm                   E7
Он pассказал, как плачет тайга,
Gm          A
Без мyжика она одинока.
Dm              E7
Hетy на почте y них ямщика,
Gm
Значит нам тyда доpога,
A
Значит нам тyда доpога.

Припев:
   Dm               Gm
   Облака в небо спpятались,
   A             F
   Звезды пьяные смотpят вниз
   Dm          G
   И в дебpи сказочной тайги
   A
   Падают они.

Соло во время припева:
|-------------------------
|--8--7-----7-8-10-8------
|--------9------------9---
|-------------------------
|-------------------------
|-------------------------
   B/E          Em7
|-------------------------|
|--7----------7-8-7-------|
|-----9--8--9--------7----|
|-------------------------|
|-------------------------|
|-------------------------|
|-------------------------|
                                           
  Em            A          B7
|----0-----------------0--------------11-|--12\----|
|-0-------------12-10--------------12----|---------|
|-------11--12-------------12--11--------|---------|
|----------------------------------------|---------|
|----------------------------------------|---------|
|----------------------------------------|---------|

Проигрыш: Dm Gm A F Dm G A Dm

Dm                 E7
Чеpные сказки белой зимы
A                       Dm
Hа ночь поют нам большие деpевья
B                Dm
Чеpные сказки пpо pозовый снег
E7             A
Розовый снег даже во сне
Dm                   E7
А ночью по лесy идет Сатана
Gm          A
И собиpает свежие дyши
Dm              E7
Hовyю кpовь полyчила зима
Gm
И тебя она полyчит
A
И тебя она полyчит

Припев:
   Em                 Am
   Облака в небо спpятались,
   H             G
   Звезды пьяные смотpят вниз
   Em          Am
   И в дебpи сказочной тайги
   H
   Падают они.
Трансильвания    
E -0-0-0--0-0-0--0-0-0--0-0-0--0-0-0--0-0-0--0-0-0--0-0-0-
H -5-5-5--5-5-5--5-5-5--5-5-5--4-4-4--4-4-4--5-5-5--5-5-5-
G -5-5-5--5-5-5--4-4-4--4-4-4--4-4-4--4-4-4--4-4-4--4-4-4-

E -0-0-0--0-0-0--0-0-0--0-0-0--0-0-0--0-0-0--0-0-0-~
H -5-5-5--5-5-5--5-5-5--5-5-5--4-4-4--4-4-4--2-2-2-~
G -5-5-5--5-5-5--4-4-4--4-4-4--4-4-4--4-4-4--2-2-2-~

 Em          G    Em             G
  Открытая дверь   на свежей земле
   Em
  Под землей кипит работа -
   A          Am
  Бесы варят позолоту.
   Em
  Там, в пещере, Алладин -
    A         Am
  Всемогущ и нелюдим.
   Am
  Там, внизу, твоя могила,
   C            H      Em
  До свиданья, милый, милый,
   Am  H
  Милый.
     Em A H
  Бывай!

  Отличная ночь для смерти и зла.
  На тебя роняет слезы
  Небо, а на небе - звезды
  Улыбаются во сне
  Человеку на Луне.
  Глубоко тебя зарыли,
  До свиданья, милый, милый,
  Милый.
  Бывай!

Fm#          A   Fm#            A
  Открытая дверь  на свежей земле
   F#
  Мы вколачиваем гвозди,
    H             Hm
  Чтоб в гробу лежали кости.
    Fm#
  Чтоб из-под земли не лез
   H          Hm
  На тебе поставлю крест.
    Fm
  Трижды плюну на могилу,
   D            C#     Fm#
  До свиданья, милый, милый,
   Hm   C#
  Милый.
     Fm# H C#
  Бывай!
Насилие    
 Am
Тихо в ночи,
               Hm
Слышен только тоненький свист,
 D
Радостный хруст,
 E
Жалобный плач.
      Am
Это плети свистят,
            Hm
Это чьи-то кости хрустят,
   D
В мертвых руках,
    E
На черных зубах.

          Am         F       Dm         E
    Это плачет Белоснежка - вот оно, пришло,
      Am              F     Dm          E
    Все, что только снилось очень глубоко.
      Hm         G       Em         F#
    Плачет Белоснежка, стонет Белоснежка,
     Hm         G          Em       F#     Hm
    И, сама не замечая, странно улыбается себе.
                G          Em       F#
    Слезы горькие глотая, выпивая кровь.
          F# Hm C
    Насилие!

Синие губы
Сосут ее кровь.
Она холодна,
Как оранжевый сок.
Черные цепи
Давят на грудь.
Железные рты
Пьют ее боль.
Ты и я    
Em         Am
 Давайте все сойдем с ума
 Сегодня - ты, а завтра - я.
           F
 Давайте все сойдем с ума,
 Вот это будет ерунда!
           D
 Мы будем дико хохотать,
 Мы будем крыльями махать,
Em      Am           F
 И покорится вся земля
            D
 Таким как ты,
Em         Am
 Таким как я.

 Мы сядем в белый пароход
 Сегодня - ты, а завтра - я.
 Мы сядем в белый пароход
 И поплывям наоборот.
 И в неизведанной земле
 Увидим Ницше на коне,
 И он обнимет нас, любя,
 Простой как ты,
 Простой как я.

 Сегодня - ты,
 Сегодня - ты,
 А завтра я.
Гетеросексуалист    
 Cm Fm D# G Cm Fm G

Cm          Fm        D# G
 Как будто горькое вино,
Cm          Fm       G
 Как будто вычурная поза,
Cm             Fm
 Под шум хмельных идей
B           Cm
 Пришла мечта о ней,
Cm          G#          G
 Как будто роза под наркозом.

    Cm           B
     Да, я люблю. Да, я люблю.
    Fm                 Cm
     Об этом песни я пою
    Cm          B         Fm
     И петь не надо о другом:
                           Cm
     Мы о другом споем потом.
            B           Fm
     А я люблю, а я люблю
                       Cm
     И удержаться не могу.
            B           Fm
     Я оптимист, я оптимист,
                    Cm
     Я гетеросексуалист.

 Меня уводит в темноту
 Счастливая меланхолия
 И пусть жестока плеть
 Я не устану петь
 Ее потрепанное имя.
Опиум для никого    
    Cm
Я крашу губы гуталином,
  B       G
Я обожаю чярный цвет
   B
И мой герой, он соткан весь
    Fm         G
Из тонких запахов конфет.
   Cm
Напудрив ноздри кокаином,
   B          G
Я выхожу на променад,
    B
И звязды светят мне красиво,
   Fm        G
И симпатичен ад.

   Cm
    Давай вечером с тобой встретимся
   B               G
    Будем опиум курить-рить-рить.
   Cm
    Давай вечером с тобой встретимся
   B                 G
    По-китайски говорить.
   Cm
    Не прячь музыку - она опиум
      B          G
    Для никого, только для нас.
   Cm
    Давай вечером умрем весело,
   B                G
    Поиграем в декаданс.

Убей меня, убей себя,
Ты не изменишь ничего:
У этой сказки нет конца
Ты не изменишь ничего.
Накрась ресницы губной помадой,
А губы лаком для волос
Ты будешь - мертвая принцесса,
А я - твой верный пяс.
Вариант 2    
  Модный такой заход.                                 Промеж куплету и
         Cm                                           припеву.
|--------8------------------------------------------|-----3---3---3--------
|----7-8--------------------------------------------|-----3---3---3--------
|----------------5-----5---------5------5----.....--|----------------------
|---------------------------------------------------|----------------------
|---------------------------------------------------|----------------------
|---------------------------------------------------|----------------------

  Время от времени появляется такое вот нечто:

|----13-12-11---|
|---------------|
|---------------|
|---------------|
|---------------|
|---------------|

  И еще вот:

|---------------|
|----6-5-4------|
|---------------|
|---------------|
|---------------|
|---------------|

  А теперь...

  Соло. Cоблюдены длительности
 G       Cm
   4 и   1 и 2 и 3 и 4   1 и 2 и 3 и 4 и    1 и 2 и 3 и 4 и
|------|---------------|-----------------|------------------|--------------
|--6-5-|-4-------------|(4)--П-----------|-78----78------78-|--------------
|------|---------------|-----а-----------|------------------|--------------
|------|---------------|-----у-----------|------------------|--------------
|------|---------------|-----з-----------|------------------|--------------
|------|---------------|-----а-----------|------------------|--------------


                     Gm/Bb                                Bb
   1 и 2 и 3 и 4 и   1 и 2 и 3 и 4 и   1 и 2 и 3 и 4 и    1 и 2  и 3 и 4 и
|------------------|-10--------------|-----------------|-------1011--------
|-(8)----------6-8-|------78------78-|(8)--------------|-89-------------89-
|------------------|-----------------|-----------------|-------------------
|------------------|-----------------|-----------------|-------------------
|------------------|-----------------|-----------------|-------------------
|------------------|-----------------|-----------------|-------------------


                     Fm7               G7                Cm
  1 и 2 и 3 и 4 и    1 u 2 u 3 u 4 u   1 u 2 u 3 u 4 u   1 u 2 u 3 u 4 u
|(4)----------3-4-|1011--------------|-----------------|------------------|
|-----------------|---------89-------|78---------------|-8-/gliss/---17---|
|-----------------|------------------|-----------------|-8-/gliss/-----21-|
|-----------------|------------------|-----------------|------------------|
|-----------------|------------------|-----------------|------------------|
|-----------------|------------------|-----------------|------------------|


                    Gm/Bb                               Bb
  1 u 2 u 3 u 4 u   1 u 2 u 3 u 4 u    1 u 2 u 3 u 4 u   1 u 2 u 3 u 4 u
|-------------8---|810------10----10-|(10)---------6---|-8-------8----68--|
|(17)-------------|------------------|-----------------|------------------|
|-----------------|------------------|-----------------|------------------|
|-----------------|------------------|-----------------|------------------|
|-----------------|------------------|-----------------|------------------|
------------------|------------------|-----------------|------------------|


                    Fm                G
  1 u 2 u 3 u 4 u   1 u 2 u 3 u 4 u   1 u 2 u 3 u 4 u   1 u 2 u 3 u 4 u
|(8)----------6-8-|-15------13------|-----------------|-------------------|
|-----------------|-----------------|-----------------|-------------------|
|-----------------|-----------------|-----------------|-------------------|
|-----------------|-----------------|-12--------------|-5/glissando/17----|
|-----------------|-----------------|-------------6-8-|-------------------|
|-----------------|-----------------|-----------------|-------------------|


 В последнем припеве такие соляки:
                    Gm/Bb             G                 Cm
 c тобой встретимся 1 u 2 u 3 u 4 u   1 и 2 и 3 и 4 и   1
|-----------------|-----------------|-----------------|-------------------|
|-----------------|-3---------------|-------------6-5-|-4-----------------|
|-----------------|---------------0-|(0)--------------|-------------------|
|-----------------|-----------------|-----------------|-------------------|
|-----------------|-----------------|-----------------|-------------------|
|-----------------|-----------------|-----------------|-------------------|

                    Gm/Bb             G                 Cm
 с тобой встретимся 1 u 2 u 3 u 4 u   1 u 2 u 3 u 4 u   1
|-----------------|-3---------------|-----------------|------|
|-----------------|---------------3-|(3)----------6-5-|-4----|
|-----------------|-----------------|-----------------|------|
|-----------------|-----------------|-----------------|------|
|-----------------|-----------------|-----------------|------|
|-----------------|-----------------|-----------------|------|

                    Gm/Bb             G                 Cm
 умрем весело       1 u 2 u 3 u 4 u   1 и 2 и 3 и 4 и   1
|-----------------|-3---------------|-----------------|------|
|-----------------|---------------3-|(3)----------6-5-|-4----|
|-----------------|-----------------|-----------------|------|
|-----------------|-----------------|-----------------|------|
|-----------------|-----------------|-----------------|------|
|-----------------|-----------------|-----------------|------|
Ни там ни тут    
Am                     Dm
 Сегодня хуже, чем вчера,
      E         Am
 Вся задом наперед.
                      Dm
 Опять жара, жара, жара
  E   Am
 Достает.
                Dm
 И одинокая мигрень,
     E          Am
 Подруга дней моих,
                    Dm
 Меня любила целый день
  E
 За двоих.

    Dm      G        Em       E7
     Я поцелую провода и не ударит меня ток.
    Am        F        Dm              E
     Заводит молния меня, как жаль что я ее не смог.
    Dm       G         Em             E7
     По небу ангелы летят, в канаве дьяволы ползут,
    Am      F        Dm               E
     И те и эти говорят: "Ты нам не враг, ты нам не друг".
                 Am F Dm E
     Ни там, ни тут.
                 Am F Dm E
     Ни там, ни тут!

 Зимою будет веселей:
 Нас пустят в рай.
 Зимою будет холодней
 И пускай.
 И ничего, что я дурак,
 Вся равно.
 В природе вся не просто так
 Суждено.

     Я поцелую провода и не ударит меня ток.
     Заводит молния меня, как жаль что я ее не смог.
     По небу дьяволы летят, в канаве ангелы поют,
     И те и эти говорят: "Ни там, ни тут!"
     Ни там, ни тут.
     Ни там, ни тут!
Дворник    
        C        Cmaj7/H              Am  Cmaj7/H
 Чую, время пришло - и захлопнулась дверь.
C            Cmaj7/H          Am  Cmaj7/H
 Ангел пропел - и полопалась кожа.
 Мы выпили жизнь, но не стали мудрей.
 Мы прожили смерть, но не стали моложе.

       Em   Dm        Em   Dm        I      III
     Дворник, милый дворник,       |---|---|---|
           Am             Fm7      |-*-|---|---|
     Подмети меня с мостовой.      |---|---|---|
       Em   Dm  Em   Dm            |---|---|---|
     Дворник, дворник.             |---|-*-|---|
      Am        Fm7                |---|---|---|
     Жопа с метлой.                   Cmaj7/H

 О боже, я и ты, пели у воды.
 Шли дорогою мечты и вот мы сохнем, как цветы.
 Одуванчики, девочки и мальчики.
 Глаза блестят, ла-ла-ла-ла.
 Но это яд, ла-ла-ла-ла.