В начало
АБВГДЖЗИКЛМНОПРСТУФХЦЧШЭЮЯA-Z0-9
 
Зимовье Зверей - Сказки
Песня о молочном поросенке    
    Em7   F#m7-5(IX)  GMaj7  D#dim7(V) D#dim(I)  F#m7-5(I)
e --(7)------------------------(5)--------2---------0----
B ---8-----10----------12-------7---------1---------1----
G ---7-----9-----------11-------5---------2---------2----
D ---9-----10----------12-------7---------1---------2----
A ---7-----9-----------10-------6--------(0)-------(0)---
E --------------------------------------------------2----

            Em7    F#m7-5(IX)  GMaj7        D#dim7
e -----------------5----------------------------
B ----5---7-8----8-----8-7-5---8-7-8-7-8-7------
G --4---------------------------------------4---

            Em     F#m7-5      GMaj7        D7(V)
e -----------------5----------------------------
B ----5---7-8----8-----8-7-5---8-7-8-7-8-7------
G --4---------------------------------------7---

             G     G/H         D7           D#Maj7
e ---------5-7---7-8---5-------7-5-7-5-7-5------
B ----8------------------8-7----------------7---
G --7-------------------------------------------

           Em      H7                Em
e ---------------------------------------
B --7-8--7-5---5-4h5---------5/7---5-5---
G ---------------------8-6-8-------------

              Em7     F#m7-5     Gmaj7  D#dim7
Прощай, мой друг, молочный поросенок,
           Em        F#m7-5      Gmaj7  D7
Позволь пожать твой честный пятачок.
           G       G/H          D7   D#maj7
Ложись скорей на свой свиной бочок
   Em         H7        Em
И досыпай, и добирай силенок.
Судьба тебя пустила в оборот,
И, принесенный в жертву аппетитам,
Ты попадешь посмертно знаменитым
Из грязи прямо в королевский рот.

Кто знает точно: участь или честь
Родиться под свинячею звездою,
Чтоб в одночасье сделаться едою,
А может быть, быть съеденным и есть.
Заказан стол, в меню внесен герой,
Венки приправ, подушечки печенок,
Ну вот и все, наивный поросенок,
Ты мало жил, зато не стал свиньей.

Я узелок потуже затяну,
Ты ничего не разберешь спросонок.
Прощай, мой друг, молочный поросенок,
Отныне нам не хрюкать на луну.
Отныне нам не хрюкать на луну.
Отныне нам не хрюкать на луну.

[в конце 3 1/4 раза повторяется первая строчка соло]

Аккорды: Александр Петерсон
Соло: Andrei Besedin (2:463/293.38)