В начало
АБВГДЖЗИКЛМНОПРСТУФХЦЧШЭЮЯA-Z0-9
 
Зимовье Зверей - Вещи со своими именами - Возвращение именных вещей
Ковчег    
(A)
     Bsus9     C#m7-5  F#7+5
Помянув все свои    потери
        Bsus9    G      A7
Каплей горечи в каждом тосте,
Вечер кончится ровно в девять
И завянут цветы и гости.
      DMaj7  Hm7
Бесконечные пересуды,
       Em7    A7
Бестолковые кривотолки,
       DMaj7      Hm7
На столе - звездопад посуды
      Em7            A7
И разбитых светил осколки.

(A)
Молча сядь между мной и осью,
И земля перестанет вращаться.
Вечность кончится ровно в восемь,
За секунду до полного счастья.
Лысый шар в волоске от лузы
Не рискнет ни скользить, ни падат.
Время снова откроет шлюзы
И затопит плотину-память.

(B)
     Am7       H7
Как нам предрекали -
   Em7      A7
Отказ в ночлеге
 DMaj7     G
Последней паре
      Em7    F#7
В пустом ковчеге.
(B)
На дне колодца
Источник света,
Лишь остается
Поверить в это.

e ------------------------------------------------5----------------
B ---7----5-------------------------------------5---8-7------------
G ----------7-6p4--4-6-4-------4-6--7--4----6-7------------6h7-6---
D -----------------------4---4-------------------------------------

(A)
Вечер кончится ровно в девять.
Ты гостей в сундуках закроешь,
И, заняв их подсчетом денег,
Мы коснемся иных сокровищ.
Мне безликих богинь дороже
Ты, которую вижу воочию.
И выводит мороз на коже
Явь, добытую зимней ночью.

(B)
Как коса на паперть -
Роса на пашне,
Как грустно падать
Пизанской башне.
В круг Галилея,
В изгиб сосуда.
Всего труднее -
Заметить чудо.

(A)
Все, что кажется неизбежным,
Океан обесценит в полночь.
И натянется побережье,
Как тугая бурлачья помочь.
Проводившие нас, надеюсь,
Там, на суше, приветят осень...
Вечер кончится ровно в девять.
И вечность кончится... Но не бойся!

(B)
Ведь суть расстояний
В пятьсот сожжений:
Без расставаний
Нет продолжений.
В этом ничтожность
Цивилизаций -
Познать возможность,
Чтоб отказаться
И плыть...

    Bsus9  C#m7-5   F#7+5  Dmaj7  Hm7  Em7  Am7
e ---(2)---------------------2-----2----0----3---
B ----2------5--------3------2-----3----3----1---
G ----2------4--------3------2-----2----0----0---
D ----2------5--------2------0-----4----2----2---
A ----2------4--------------(0)----2----2----0---
E ---(2)--------------2-----------(2)---0---(0)--

Аккорды: Александр Петерсон
Проигрыш: Dmitry Jemerov (yole@yole.ru)