В начало
АБВГДЖЗИКЛМНОПРСТУФХЦЧШЭЮЯA-Z0-9
 
БИ-2 - Песок (сингл)
Песок (single version)    
Эти табуляторы играются в самом начале песни.
1||----1-----|----2------|-----2-------|-----0-1---------
2||------3---|------3----|-------3-----|---3-----3------- 2раза
3||-4------4-|-2------2--|-0-------0---|-3---------3-----
После этого поется куплет  но в куплетах гитары нет.

Мы  ждем  новостей  в условный день и час
Как ручей прольется кровь из
Глаз  не спускать не тушить огни их рана
Сердце раздавит на дне океана

Эти табуляторы играются во время припева.
E||---------------|---------------|---------------|-----------------
B||---------------|---------------|---------------|-----------------
G||---------------|---------------|---------------|-----------------
D||9-9-9-9-9-9-9-9|7-7-7-7-7-7-7-7|5-5-5-5-5-5-5-5|8-8-8-8-8-8-8-8--
A||9-9-9-9-9-9-9-9|7-7-7-7-7-7-7-7|5-5-5-5-5-5-5-5|8-8-8-8-8-8-8-8--
E||7-7-7-7-7-7-7-7|5-5-5-5-5-5-5-5|3-3-3-3-3-3-3-3|6-6-6-6-6-6-6-6--
    Уууууууууууууууууууууууууууу         Как   песок сквозь пальцы 

E||---------------|---------------|---------------|-----------------
B||---------------|---------------|---------------|-----------------
G||---------------|---------------|---------------|-----------------
D||9-9-9-9-9-9-9-9|7-7-7-7-7-7-7-7|5-5-5-5-5-5-5-5|8-8-8-8-8-8-8-8--
A||9-9-9-9-9-9-9-9|7-7-7-7-7-7-7-7|5-5-5-5-5-5-5-5|8-8-8-8-8-8-8-8--
E||7-7-7-7-7-7-7-7|5-5-5-5-5-5-5-5|3-3-3-3-3-3-3-3|6-6-6-6-6-6-6-6--
   Уууууууууууууууууууууууууууууу         Что же     будет  дальше

E||---------------|---------------|---------------|-----------------
B||---------------|---------------|---------------|-----------------
G||---------------|---------------|---------------|-----------------
D||9-9-9-9-9-9-9-9|7-7-7-7-7-7-7-7|5-5-5-5-5-5-5-5|8-8-8-8-8-8-8-8--
A||9-9-9-9-9-9-9-9|7-7-7-7-7-7-7-7|5-5-5-5-5-5-5-5|8-8-8-8-8-8-8-8--
E||7-7-7-7-7-7-7-7|5-5-5-5-5-5-5-5|3-3-3-3-3-3-3-3|6-6-6-6-6-6-6-6--
   Ууууууууууууууууууууууууууууууу       Слов    немая    стая

E||---------------|---------------|---------------|-----------------
B||---------------|---------------|---------------|-----------------
G||---------------|---------------|---------------|-----------------
D||9-9-9-9-9-9-9-9|7-7-7-7-7-7-7-7|5-5-5-5-5-5-5-5|8-8-8-8-8-8-8-8--
A||9-9-9-9-9-9-9-9|7-7-7-7-7-7-7-7|5-5-5-5-5-5-5-5|8-8-8-8-8-8-8-8--
E||7-7-7-7-7-7-7-7|5-5-5-5-5-5-5-5|3-3-3-3-3-3-3-3|6-6-6-6-6-6-6-6--
   Ууууууууууууууууууууууууууууууу       Просто     исчезает

Ждать перемен в удобный случай нам
Выбор Бок Мэн иди и слушай
Как тонет сердце на дне чужих историй
Падает с неба  звезда и гаснет море

Уууууууууууууу  Как песок сквозь пальцы
Уууууууууууууу  Что же будет дальше
Уууууууууууууу   Слов немая стая
Уууууууууууууу   Просто исчезает

После второго куплета и припева играется соло  но его осилить я не смог
После соло играется вроде как  на двух гитарах
Гтр1
E||---------------|---------------|---------------|---------------|
B||---------------|---------------|---------------|---------------|
G||---------------|---------------|---------------|---------------|
D||9-9-9-9-9-9-9-9|7-7-7-7-7-7-7-7|5-5-5-5-5-5-5-5|8-8-8-8-8-8-8-8|
A||9-9-9-9-9-9-9-9|7-7-7-7-7-7-7-7|5-5-5-5-5-5-5-5|8-8-8-8-8-8-8-8|
E||7-7-7-7-7-7-7-7|5-5-5-5-5-5-5-5|3-3-3-3-3-3-3-3|6-6-6-6-6-6-6-6|
Гтр2
E||----1----------|------2--------|-----2---------|-----0-1------|
B||--------3------|---------3-----|--------3------|---3-----3----|
G||-4-----------4-|-2----------2--|-0---------0---|-3---------3--|

Уууууууууууууу  Как песок сквозь пальцы
Уууууууууууууу  Что же будет дальше
Уууууууууууууу   Слов немая стая
Уууууууууууууу   Просто исчезает

И в конце те же табуляторы что и в начале
E||----1-----|----2------|-----2-------|-----0-1---------
B||------3---|------3----|-------3-----|---3-----3------- 2раза
G||-4------4-|-2------2--|-0-------0---|-3---------3-----