В начало
АБВГДЖЗИКЛМНОПРСТУФХЦЧШЭЮЯA-Z0-9
 
БИ-2 - Звездная серия (2 CD)
Феллини (Би-2 + Сплин)      
Rhythm Melody/Intro: 

   D5   F5   D5   F5   D5   F5   A5   C5
G|-7-7-/10-7-7-7-/10-7-7-7-/10-------------|
D|-7-7-/10-7-7-7-/10-7-7-7-/10-7-7-7-/10---| - основная мелодия песни.
A|-5-5-/8- 5-5-5-/8- 5-5-5-/8--7-7-7-/10---|
E|-----------------------------5-5-5-/8- 0-|

     D5        D5    D5        A5        D5    D5 D5 D5 A5
В одном из неснятых фильмов Федерико Феллини,
    D5          D5    D5       A5         D5    D5 D5 D5 A5
На тоненькой льдине,        в бокале "Мартини".
  D5     D5  D5 A5     D5       D5  D5 A5
Герой на героине,     героиня на героине,
   D5       D5   D5  A5            D5  D5 D5 D5 A5
И двойная сплошная пролегла между ними.            

Между ними секунду назад было жарко,
А теперь между ними лежат снега Килиманджаро.
Патроны в магазине, глазами на резине,
И отравленный воздух глотают так жадно.
                                    Зря...   
Припев: (x2)
    D5                A5
   Зря ты думаешь о смерти.
    D5                              A5
   Я хочу найти письмо в пустом конверте
          D5 E5 F5  G5
       G|-7-/9-/10-/12-|
       D|-7-/9-/10-/12-|       или       G|-7-/9-/10-/12-|
       A|-5-/7-/8--/10-|   то же самое
       E|--------------| на одной струне
   И прочесть        тебе.           
 
Rhythm Melody/Solo: D5 D5 A5 A5  

E|-5-5-6-5----------|
B|---------3-/5-/6--|

В одном из неснятых фильмов Федерико Феллини
Лежат снега Килиманджаро.
Герой на героине, героиня на героине,
И отравленный воздух глотают так жадно.
     
Припев. (х2)

Rhythm Melody/Solo: D5 D5 A5 A5
Вариант 2    
Для веpсии с БИ-2 рифф пpимеpно такой:
D |-----------------------------|
A |55/\--5-55/\--5-55/\--5---/\-|
E |------------------------55---|

/ \ - пальцем ведете до конца гpифа и возвpащаетесь обpатно

Если pиффом аккомпаниpовать неyдобно можно
игpать квинты, как написано ниже, или
вместо квинт соответствyющие аккоpды Dm A
пpавда тогда y вас не бyдyт отличаться по звyкy
кyплеты с пpипевом, т.к. в кyплете аккоpды такие же
поэтомy лyчше всего на акyстике игpать так:
кyплеты - pифф, пpипев- аккоpды или квинты

     D5                         A5     D5  A5
В одном и неснятых фильмов Фpедеpика Феллини
Hа тоненькой льдине в бокале маpтини
Геpой на геpоине, Геpоиня на геpоине,
И двойная сплошная пpолегла междy ними

Междy(Аy)ними секyндy назад было жаpко
А тепеpь междy ними лежат снега Килиманджаpо
Патpоны в магазине, глазами на визине,
И отpавленный воздyх глотают так жадно
 D5
Зpя

 D5                  A5
Зpя ты дyмаешь о смеpти
Я хочy найти письмо в пyстом конвеpте
e |--------------------------|
B |--------------------------|
G |---7-777/9999/10101010/14-|
И пpочесть                тебе

Пpипев. - 2 pаза


В одном и неснятых фильмов Фpедеpика Феллини
Лежат снега Килиманджаpо
Геpой на геpоине, Геpоиня на геpоине,
И отpавленный воздyх глотают так жадно

Пpипев. - 2 pаза

Hаy-наy-наy-аy-аy-а...
Вариант 3    
Проигрыш:
1|-------------------------------------------------
2|-3-------------3--------------3----1----------3--
3|---------------------------------------3---2-----
4|-0--------------0--------------0--------------0--
5|-----3---1---0------3---1---0------3---1---0-----
6|-------------------------------------------------
 Лучше вторую струну почти все время держать зажатой на третьем ладу  

 В первом куплете проще играть так(каждый аккорд только 1 раз):

    Dm      C      Bb       A      A*       
1|------------------------------------
2|--3-------1----------------------2--
3|------------------3-------2---------
4|--0------------------------------2--
5|----------3-------1-------0---------
6|------------------------------------

 А вот второй куплет играется немного по другому:
 Первые две строки:

    Dm      C      Bb       A      A*       
1|----1-------0-----------------------
2|--3-------1---------3------------2--
3|------------------3-------2---------
4|--0------------------------------2--
5|----------3-------1-------0---------
6|------------------------------------

Вторые две строки так:

    Dm      C      Bb       A      A*       
1|--1-------0----------------------0--
2|--3-------1-------1-------2------2--
3|------------------3-------2---------
4|--0------------------------------2--
5|----------3-------1-------0---------
6|------------------------------------

Припев играется так (каждый аккорд только 1 раз):

    Dm       C       Bb     A     A*        
1|--1-1-----0-0-------------------0--
2|--3-3-----1-1-----3-3-----2-----2--
3|------------------3-3-----2--------
4|--0-----------------------------2--
5|----------3-------1-------0--------
6|-----------------------------------

Dm         C        Bb      A     A* Dm     C Bb A A*
В одном из неснятых фильмов Федерико Феллини
 Dm           C    Bb A A* Dm    C     Bb A A*
На тоненькой льдине    в бокале мартини
 Dm    C   Bb  A A*  Dm      C   Bb  A A* Dm
Герой на героине,   Героиня на героине
  C       Bb       A    A*   Dm     C  Bb A A*  
И двойная сплошная пролегла между ними

Между ними секунду назад было жарко
А теперь между ними лежат снега Килиманджаро
Патроны в магазине, глазами на визине
И отравленный воздух глотают так жадно

Припев(x3):

Dm      C  B    A    A*
Зря ты думаешь о смерти
Dm      C     B               A   A*
Я хочу найти письмо в пустом конверте
Dm        C Bb A  A*
И прочесть    тебе  

потом играется как в первом куплете 

Подбор: GrifON (cheganov@ufacom.ru)