В начало
АБВГДЖЗИКЛМНОПРСТУФХЦЧШЭЮЯA-Z0-9
 
Машина Времени - 50 на двоих
Кто виноват    
Вступление:
E||--10--9--/7----------|-10h12--9h10--/7---------|------------------------------|
H||------------10p8-----|-----------------10p8----|--10b11--8--10---8----------8-|
G||*--------------------|-------------------------|---------------9----7h9-7h9---|
D||*--------------------|-------------------------|------------------------------|
A||---------------------|-------------------------|------------------------------|
E||---------------------|-------------------------|------------------------------|

E||-------------------------||
H||-------------------------||
G||--7h9--------7----------*||
D||------------------------*||
A||-------------------------||
E||-------------------------||

Solo:
E|--12/10----12---12/10-----|--10----12--10-----------|
H|--------12------------12--|-----12--------11/12-----|
G|--------------------------|-------------------------|
D|--------------------------|-------------------------|
A|--------------------------|-------------------------|
E|--------------------------|-------------------------|

E|--10---------------------|----------------------------------------|
H|-----12/10--8--10---8----|----3-3h5-----10-11b12h10-----10----11--|
G|------------------9------|--4---------12-------------12----12-----|
D|-------------------------|----------------------------------------|
A|-------------------------|----------------------------------------|
E|-------------------------|----------------------------------------|
                                                               
E|-----12-10-12--14/10----------10-------------||
H|--12-----------------12-11/12----12/10--8----||
G|------------------------------------------9--||
D|---------------------------------------------||
A|---------------------------------------------||
E|---------------------------------------------||

E||--15-------14-------15-------14--------||--15-------14------------17----------------------------|
H||-----17-------17-------17-------17-----||-----17-------17------17----17b18--17b18--17b18--17b18-|
G||--------16-------16-------16-------16--||--------16---------16----------------------------------|
D||---------------------------------------||-------------------------------------------------------|
A||---------------------------------------||-------------------------------------------------------|
E||---------------------------------------||-------------------------------------------------------|

E|--17---------------------------------------|-----------------------------------------|
H|------15--12/10------------5b6----/10--8---|----3-5----------------------------------|
G|-----------------12--7b8-7---------------9-|-/4---------4---4-----6---6------9----9--|
D|-------------------------------------------|---------/5---5----/7---7----/10---10----|
A|-------------------------------------------|-----------------------------------------|
E|-------------------------------------------|-----------------------------------------|

E|------5------------------------|------5--3-3-5---7-7-7-7--|
H|---------8---7--5--------------|--3h5---------------------|
G|-----------------------4---4---|--------------------------|
D|---/7------7--------/5---5-----|--------------------------|
A|-------------------------------|--------------------------|
E|-------------------------------|--------------------------|

....АаааааАААууууААААаууууААААа БадабаадааабууддуууДааааааа......
E|-----------------------------------------------------|
H|-----------------------------------------------------|
G|-14b15r14--12----15-14-12-----------12-15-14-12------|
D|--------------14----------14--12-14-------------14---|
A|-----------------------------------------------------|
E|-----------------------------------------------------|


        Em
Кто виноват, что ты устал,
         G
Что не нашел, чего так ждал
      C
Все потерял, что так искал,
            Em
Поднялся в небо и упал.
        Em
И чья вина, что день за днем
        G
Уходит жизнь чужим путем,
    C                 H7
И одиноким стал твой дом,
           Em
И пусто за твоим окном.

       G                A
   И меркнет свет, и молкнут звуки,
      C7          A
   И новой муки ищут руки.
      G         A
   Если боль твоя стихает,
     C7                H7  Em Hm Em
   Значит будет новая беда.

Кто виноват, скажи ка, брат - один женат, другой богат,
Один смешон, другой влюблен, один дурак, другой - твой враг?
И чья вина, что там и тут, друг друга ждут и тем живут,
Но скучен день, и ночь пуста, забиты теплые места.

Кто виноват, и в чем секрет, что горя нет и счастья нет,
Без поражений нет побед, и равен счет удач и бед?
И чья вина, что ты один, и жизнь одна и так длинна, и так скучна,
А ты все ждешь, что ты когда-нибудь умрешь...

   И меркнет свет, и глохнут звуки, и новой муки ищут руки,
   И если боль твоя стихает, значит будет новая беда...

Подбор: Pashin Timophei (t_pashin@mail.ru)