В начало
АБВГДЖЗИКЛМНОПРСТУФХЦЧШЭЮЯA-Z0-9
 
БИ-2 - Прощай, Берлин
Мой рок-н-ролл (БИ-2 и Чичерина)      
  G         A
И то,что было набело
 Hm
Откроется потом
     G
Мой рок-н-ролл
    A            Hm
Это не цель и даже не средство

Hе новое,а заново
Один и об одном
Дорога в мой дом
И для любви это не место

Припев:
    G                A
   Прольются все слова,как дождь
    Hm
   И там,где ты меня не ждёшь
    G             A         Hm
   Hочные ветры принесут тебе прохладу
   G           A
   Hа наших лицах без ответа
       Hm             D
   Лишь только отблески рассвета
   G      A          Hm
   Того,где ты меня не ждешь

А дальше-это главное
Похожий на тебя
В долгом пути
Я заплету волосы лентой

И не способный на покой
Я знак подам тебе рукой
Прощаясь с тобой
Как будто с легендой

Припев.

И то,что было набело
Откроется потом
Мой рок-н-ролл
Это не цель и даже не средство

Hе новое,а заново
Один и об одном
Дорога в мой дом
И для любви это не место

Перебор: играется при барре на втором ладу
         с ударением на бас и на верхнюю ноту
G
-+------2-----------
-+--3-2---2---2-----
-+----------2---2---
-+------------------
-+------------------
--3-----------------

Остальные аккорды так же,меняется только бас:
для А-открытая пятая, для Hm-пятая на втором ладу,
для D-открытая четвертая
Вариант 2    
Рифф:

Играется аккорд С, потом он переносится на 3-й лад, потом Аm два раза, и все это с 
чередованием  указательного пальца.

Е----------0--------------------------0--------------------------0---------------------0----------
H-----1-------0-----1----------3--------0-----3-----------1---------0-----1--------1-----0---1----
G-------0--------0-----0---------0---------0-----0-----------2---------2-----2-------2-----2---2--
D-------------------------------------------------------------------------------------------------
A--3-------------------------5--------------------------0------------------------0----------------
E-------------------------------------------------------------------------------------------------

Между припевом и куплетом можно вставить

E-----0---------
H--------0------
G------------0--
D---------------
A---------------
E---------------

И то, что было набело 
Откроется потом 
Мой рок-н-ролл 
Это не цель и даже не средство 
Не новое ,а заново 
Один и об одном 
Дорога в мой дом
И для любви это не место 

Припев:
   Прольются все слова, как дождь
   И там, где ты меня не ждешь 
   Ночные ветры принесут тебе прохладу 
   На наших лицах без ответа 
   Лишь только отблески рассвета 
   Того, где ты меня не ждешь 

А дальше- это главное
Похожий на тебя 
В долгом пути 
Я заплету волосы лентой
И не способный на покой 
Я знак подам тебе рукой
Прощаясь с тобой 
Как будто с легендой 

Припев.

И то, что было набело
Откроется потом 
Мой рок-н-ролл 
Это не цель и даже не средство
Не новое, а заново 
Один и об одном
Дорога в мой дом 
И для любви это не место
Вариант 3    
Гитарка: 
|---------|---------|---------|-------0----------|--------0------------|
|---------|---------|---------|-----1-----1-0-1--|------1-----1-0-1----|
|---------|---------|---------|---2-----2--------|----2-----2----------|
|---------|---------|---------|------------------|---------------------|
|---------|---------|---------|------------------|---------------------|
|---------|---------|---------|-1----------------|-3-------------------|

|-------0---------|-------0-----------|
|-----1-----1-0-1-|-----1------1-0-1--|
|---2-----2-------|---2-----2---------|
|-----------------|-------------------|
|-0---------------|-0-----------------|
|-----------------|-------------------|


Басуха:

|---------|---------|---------|---------|---------|---------|----0b-------|
|---------|---------|---------|---------|---------|---------|-------------|
|---------|---------|---------|---------|---------|---------|-------------|
|---------|---------|---------|---------|---------|---------|-------3b----|

|----------|----------|----------|---------|----------|----------|----------|
|----------|----------|----------|---------|----------|----------|----------|
|----------|----------|-0--------|---------|----------|----------|-0--------|
|-1--------|-3--------|----------|---------|-1--------|-3--------|----------|

|---------|----------|----------|----------|---------|----------|----------|
|---------|----------|----------|----------|---------|----------|----------|
|---------|----------|----------|-0--------|---------|----------|----------|
|---------|-1--------|-3--------|----------|---------|-1--------|-3--------|

|----------|---------|----------|----------|-----------|-----------|----------|
|----------|---------|----------|----------|-----------|-----------|----------|
|-0--------|---------|----------|----------|-0-------0-|-0-----0---|----------|
|----------|---------|-1--------|-3--------|-----------|-----------|-1--------|

|----------|-----------|-----------|----------|----------|-----------|
|----------|-----------|-----------|----------|----------|-----------|
|----------|-0-------0-|-0------0--|----------|----------|-0-------0-|
|-3--------|-----------|-----------|-1--------|-3--------|-----------|

|-----------|----------|----------|----------|-----0b----|
|-----------|----------|----------|----------|-----------|
|-0------0--|----------|----------|-0--------|-----------|
|-----------|-1--------|-3--------|----------|-----------|


Гармошка:

|-8-------|------10--|-12--------|--------10-|-12-10-12----17--|
|---------|----------|-----------|-----------|-----------------|
|---------|----------|-----------|-----------|-----------------|
|---------|----------|-----------|-----------|-----------------|
|---------|----------|-----------|-----------|-----------------|
|---------|----------|-----------|-----------|-----------------|

|-15---12-----|-19------15------|-15---------------|-----------|------------0--|
|-------------|--------------17-|------17--15------|-----------|---------------|
|-------------|-----------------|------------------|-17--------|-16-17-16------|
|-------------|-----------------|------------------|-----------|---------------|
|-------------|-----------------|------------------|-----------|---------------|
|-------------|-----------------|------------------|-----------|---------------|

|-------------|-----5-3-0--|-1--------|-3--------|-7--------|
|-------------|------------|----------|----------|----------|
|------14-----|------------|----------|----------|----------|
|-17----------|------------|----------|----------|----------|
|-------------|------------|----------|----------|----------|
|-------------|------------|----------|----------|----------|


vtoroi raz

|---------|---------|---------|----8-7--3----|-5--------|-8-7--3-----|-0--------|
|---------|---------|---------|--------------|----------|------------|----------|
|---------|---------|---------|--------------|----------|------------|----------|
|---------|---------|---------|--------------|----------|------------|----------|
|---------|---------|---------|--------------|----------|------------|----------|
|---------|---------|---------|--------------|----------|------------|----------|

|----8-7--3--|-5--------|-7--------------7-8-|
|------------|----------|--------------------|
|------------|----------|--------------------|
|------------|----------|--------------------|
|------------|----------|--------------------|
|------------|----------|--------------------|

|----7----5--------|------------7--8----7------3---------|
|------------------|-------------------------------------|
|------------------|-------------------------------------|
|------------------|-------------------------------------|
|------------------|-------------------------------------|
|------------------|-------------------------------------|

|-5--------|------------7--8----7------0----3-----|
|----------|------------8-------------------------|
|----------|--------------------------------------|
|----------|--------------------------------------|
|----------|--------------------------------------|
|----------|--------------------------------------|

|----5-------------------------15---|-17--------|---------|---------|---------|
|-----------------------------------|-----------|---------|---------|---------|
|-----------------------------------|-----------|---------|---------|---------|
|-----------------------------------|-----------|---------|---------|---------|
|-----------------------------------|-----------|---------|---------|---------|
|-----------------------------------|-----------|---------|---------|---------|


tretii raz
|---------|--8-7--3----|-5--------|-8-7--3-----|-0--------|--8-7--3----|
|---------|------------|----------|------------|----------|------------|
|---------|------------|----------|------------|----------|------------|
|---------|------------|----------|------------|----------|------------|
|---------|------------|----------|------------|----------|------------|
|---------|------------|----------|------------|----------|------------|

|-5--------|-7--------------7-8-|----7----5-------------------------|
|----------|--------------------|-----------------------------------|
|----------|--------------------|-----------------------------------|
|----------|--------------------|-----------------------------------|
|----------|--------------------|-----------------------------------|
|----------|--------------------|-----------------------------------|

|---------7-8---7------------3-------5-|---------------------------------|
|--------------------------------------|---------------------------------|
|--------------------------------------|---------------------------------|
|--------------------------------------|---------------------------------|
|--------------------------------------|---------------------------------|
|--------------------------------------|---------------------------------|

|---8--10----8-------7-|-10-----12b---------------------------|---------|
|----------------------|--------------------------------------|---------|
|----------------------|--------------------------------------|---------|
|----------------------|--------------------------------------|---------|
|----------------------|--------------------------------------|---------|
|----------------------|--------------------------------------|---------|

|-----13-12---|-10----------10------7-----3-----------|-5--------|---------|
|-------------|---------------------------------------|----------|---------|
|-------------|---------------------------------------|----------|---------|
|-------------|---------------------------------------|----------|---------|
|-------------|---------------------------------------|----------|---------|
|-------------|---------------------------------------|----------|---------|


Клавиши(вступление)

E |----------|----------|----------|---------|----------|----------|----------|
B |----------|----------|----------|---------|----------|----------|----------|
G |-2--------|-4--------|--5-------|---------|-2--------|-0--------|-2--------|
D |----------|----------|----------|---------|----------|----------|----------|
A |----------|----------|----------|---------|----------|----------|-0--------|
E |-1--------|-3--------|-5--------|---------|-1--------|-3--------|----------|

|---------|----------|-----------|----------|---------|--------|
|---------|-1--------|-----------|-1--------|-----3---|-5------|
|---------|-2--------|-0----4----|-2--------|---------|--------|
|---------|----------|-----------|----------|---------|--------|
|---------|----------|-----------|-0--------|---------|--------|
|---------|-1--------|-3---------|----------|---------|-1------|

|----------------------------------|----------|----------|----------|
|-3--------------------------------|----------|-1--------|-1--------|
|-0------------------------------2-|----------|----------|-2--------|
|----------------------------------|----------|----------|----------|
|----------------------------------|-0--------|----------|----------|
|-3--------------------------------|----------|----------|-1--------|

|-----------|-3----5----|-3----5----|-0--------|-3-------|-5--------|
|-----------|-1---------|------3----|----------|-3-------|----------|
|-0----4----|-2---------|-----------|----------|-0-------|-2--------|
|-----------|-----------|-----------|----------|---------|----------|
|-3---------|-5---------|-----------|-1--------|-3-------|-5--------|


Вокал

|---|-----|-----|------|-----|---|----------|-----|---|-----|-----|-----|
|---|-----|-----|----1-|-----|---|-0-1---0--|-----|-0-|-1---|-----|---1-|
|---|---2-|-5---|-2----|--2--|---|----------|-----|---|-----|-----|-2---|
|---|-----|-----|------|-----|---|----------|-----|---|-----|-----|-----|
|---|-----|-----|------|-----|---|----------|-----|---|-----|-----|-----|
|---|-----|-----|------|-----|---|----------|-----|---|-----|-----|-----|

|-------|---|---|-------|----0--|---|---|-------|-------|---|-----|-------|
|-1-----|---|---|-5-3---|-1-----|---|---|-3-3---|-1-3---|---|-----|-1-3---|
|----2--|---|---|-------|-------|---|---|-------|-------|---|--2--|-------|
|-------|---|---|-------|-------|---|---|-------|-------|---|-----|-------|
|-------|---|---|-------|-------|---|---|-------|-------|---|-----|-------|
|-------|---|---|-------|-------|---|---|-------|-------|---|-----|-------|

|-------|-----|---|---|---|---|---|---|-----|-----|-------|---|-----|-------|
|-5-3---|--1--|---|---|---|---|---|---|-----|-----|----1--|---|-----|-0-1---|
|-------|-----|---|---|---|---|---|---|--2--|-5---|-2-----|---|--2--|-------|
|-------|-----|---|---|---|---|---|---|-----|-----|-------|---|-----|-------|
|-------|-----|---|---|---|---|---|---|-----|-----|-------|---|-----|-------|
|-------|-----|---|---|---|---|---|---|-----|-----|-------|---|-----|-------|

|-----|---|-----|-----|-----|-------|-----|---|-----|-------|----0--|---|---|
|-0---|---|-----|-----|-----|-1-1---|-----|---|-----|-5-3---|-1-----|---|---|
|-----|---|--2--|-5---|-2---|-------|--2--|---|--2--|-------|-------|---|---|
|-----|---|-----|-----|-----|-------|-----|---|-----|-------|-------|---|---|
|-----|---|-----|-----|-----|-------|-----|---|-----|-------|-------|---|---|
|-----|---|-----|-----|-----|-------|-----|---|-----|-------|-------|---|---|

|-------|-------|---|---|-------|-------|-----|---|---|---|---|---|---|-----|
|-3-3---|-1-3---|---|---|-3-3---|-5-3---|--1--|---|---|---|---|---|---|-----|
|-------|-------|---|---|-------|-------|-----|---|---|---|---|---|---|--2--|
|-------|-------|---|---|-------|-------|-----|---|---|---|---|---|---|-----|
|-------|-------|---|---|-------|-------|-----|---|---|---|---|---|---|-----|
|-------|-------|---|---|-------|-------|-----|---|---|---|---|---|---|-----|

|-----|-------|-----|-------|-----|---|---|-----|-----|-------|-----|-------|
|-----|----1--|-----|-------|-0---|---|---|--0--|-1---|----1--|-----|-1-3---|
|-5---|-2-----|--2--|-5-2---|-----|---|---|-----|-----|-2-----|--2--|-------|
|-----|-------|-----|-------|-----|---|---|-----|-----|-------|-----|-------|
|-----|-------|-----|-------|-----|---|---|-----|-----|-------|-----|-------|
|-----|-------|-----|-------|-----|---|---|-----|-----|-------|-----|-------|

|-0---|---|---|-----|-----|-------|-----|-------|-----|-------|-----|-------|
|-----|---|---|-----|-----|----1--|-----|-0-1---|-3---|-3-3---|--3--|-3-1---|
|-----|---|---|--2--|-5---|-2-----|--2--|-------|-----|-------|-----|-------|
|-----|---|---|-----|-----|-------|-----|-------|-----|-------|-----|-------|
|-----|---|---|-----|-----|-------|-----|-------|-----|-------|-----|-------|
|-----|---|---|-----|-----|-------|-----|-------|-----|-------|-----|-------|

|-0---|---|---|---|---|---|---|-----|-----|-------|-----|---|-----|-------|
|-----|---|---|---|---|---|---|-----|-----|----1--|-----|---|-0---|-1-1---|
|-----|---|---|---|---|---|---|--2--|-5---|-2-----|--2--|---|-----|-------|
|-----|---|---|---|---|---|---|-----|-----|-------|-----|---|-----|-------|
|-----|---|---|---|---|---|---|-----|-----|-------|-----|---|-----|-------|
|-----|---|---|---|---|---|---|-----|-----|-------|-----|---|-----|-------|

|-----|-----|-----|-----|-----|-----|-0---|-0---|-0-0---|-0-0---|---|---|---|
|--0--|-0---|-1---|-----|-1---|-3---|-----|-----|-------|-------|---|---|---|
|-----|-----|-----|-2---|-----|-----|-----|-----|-------|-------|---|---|---|
|-----|-----|-----|-----|-----|-----|-----|-----|-------|-------|---|---|---|
|-----|-----|-----|-----|-----|-----|-----|-----|-------|-------|---|---|---|
|-----|-----|-----|-----|-----|-----|-----|-----|-------|-------|---|---|---|

|-----|-----|-------|-------|---|---|---|---|---|---|---|---|---|---|---|---|
|--3--|-3---|-1-0---|-0-----|---|---|---|---|---|---|---|---|---|---|---|---|
|-----|-----|-------|----2--|---|---|---|---|---|---|---|---|---|---|---|---|
|-----|-----|-------|-------|---|---|---|---|---|---|---|---|---|---|---|---|
|-----|-----|-------|-------|---|---|---|---|---|---|---|---|---|---|---|---|
|-----|-----|-------|-------|---|---|---|---|---|---|---|---|---|---|---|---|