В начало
АБВГДЖЗИКЛМНОПРСТУФХЦЧШЭЮЯA-Z0-9
 
Боярский Михаил - Grand Collection
Зеленоглазое такси    
Em  C        D    Hm
Вот   и   осталось
 C   F#           E*     H7
Лишь   снять   уста-a-aлость
И     этот   вечеp                         
Мне   душу   ле-e-eчит

Припев:
  H7     Em         C
   О-о-о-о,
           D       Hm
   Зеленоглазое такси
  Hm     Em         C
   О-о-о-о,
            D         G
   Пpитоpмози, пpитоpмози
  H7     Em         C
   О-о-о-о,
          D        Hm
   И отвези   меня туда
         Em         C
   О-о-о-о,
             D           G   H7
   Где будут pады мне всегда, 

Там и не спpосят
Где меня носит
Там я-то знаю
Всё понимают

Припев.
Вариант 2    
Мелодичней будет если играть перебором:
   Hm *                    G (III)              A (V)            F#m
h|------3-----------3----|-----3----------3---|-----5-------5---|-------2--------2----|
g|------4-----------4----|-----4----------4---|-----6-------6---|-------2--------2----|
d|---4-----4------4---4--|---5---5------5---5-|---7---7---7---7-|-----4---4----4---4--|
A|-2-----------0---------|--------------------|-----------------|---------------------|
E|-----------------------|3----------3--------|-5-------5-------|--2---------2--------|
   Вот......                         И      ос  та      лось
  G                        C#7 (IV)             F# (II)                 
h|------3-----------3----|-----6----------6---|-----2-------2---|-------2--------2----|
g|------4-----------4----|-----4----------4---|-----3-------3---|-------3--------3----|
d|---5-----5------5---5--|---6---6------6---6-|---4---4---4---4-|-----4---4----4---4--|
A|-----------------------|4----------4--------|-----------------|---------------------|
E|-3----------3----------|--------------------|-2-------2-------|--2---------2--------|
   Лишь                              Снять ус   та      лость   

Hm  G      A     F#m
Вот   и осталось
G   G#7        F#
Лишь   снять усталость
Hm  G       A    F#m
И     этот вечеp
G   C#7      F#
Мне    душу лечит

Припев:
        Hm            G
   О-о-о-о  на-на-на-на
           A       F#m
   Зеленоглазое такси
         Hm          G
   О-о-о-о  на-на-на-на
            A         F#m
   Пpитоpмози, пpитоpмози
        Hm            G
   О-о-о-о  на-на-на-на
          A       F#m
   И отвези меня туда
        Hm            G
   О-о-о-о   на-на-на-на
              A            D(V)        F#
   Где будут pады мне всегда, всегда-а-а-а...

Там и не спpосят
Где меня носит
Там я-то знаю
Всё понимают

Припев.

* Переход с Hm на G в песне ритмуется басом. На акустике возможны несколько вариаций, 
наиболее (на мой взгляд) легкий и схожий с песней переход указан в начале в переборе.
(После того как сыграл басовую Си (H) в аккорде Hm отпускаешь ее и играешь открытую
Ля (A) тем же перебором).
   Песню можно конечно играть и на том ниже: Am, F, G, E, и тем самым избавить себя от 
нудных баррэ, но если кто послушает оригинал, то не трудно услышать что в ней играется
именно с Hm.
Вариант 3    
Intro:
1-13-13-12-13-10--8-5-12-13-10--
2-------------------------------
3-------------------------------

Am F    G    E
Вот и осталось
F    Dm       E
Лишь снять усталость
Am F   G    E
И этот вечеp
F  Dm     E
Мне душу лечит

Припев:
        Am          F
   О-о-о-о на-на-на-на
           G        E
   Зеленоглазое такси
        Am          F
   О-о-о-о на-на-на-на
           G        E
   Пpитоpмози, пpитоpмози
   О-о-о-о на-на-на-на
   И отвези меня туда
   О-о-о-о на-на-на-на
   Где будут pады мне всегда, всегда

Там и не спpосят
Где меня носит
Там я-то знаю
Всё понимают

Припев.

Solo:
1------------------------------------------
2-------5-8-6-6-6-5-6-5-3--6-6-6-6-5-5-3-1-
3----2-------------------------------------
4------------------------------------------

1------------------------------------------
2------5-8-6-6-6-5-6-5-3--6-6-6-6-5-6-8-10-
3----2-------------------------------------
4------------------------------------------
Вариант 4    
D#m H      C#    Bbm
Вот   и осталось
 H   F          Bb
Лишь   снять усталость.
D#m H     C#    Bbm
И    этот вечеp
  H  F       Bb
Мне    душу лечит

Припев:
       D#m H        C#      Bbm
   О-о-о-о, зеленоглазое такси,
       D#m H        C#          F#
   О-о-о-о, пpитоpмози, пpитоpмози.
    Bb D#m H       C#       Bbm
   О-о-о-о, и отвези меня туда,
       D#m H          C#           F#
   О-о-о-о, где будут pады мне всегда, 
                                 Bbsus4  Bb
                               всегда...

Там и не спpосят,
Где меня носит.
Там, я-то знаю,
Всё понимают.

Припев.
Вариант 5    
Все аккорды играются барре. (Кроме вступления)

Вступление:
         Em  G6/F#        Em(II) Em9/F#
e|-2-3-2-0-|--(0)--|(0)----2-|--(2)--|
H|---------|-------|---3-0---|-------|

Em C     D Hm   C F7#       E4- H7
Вот и осталось лишь снять усталость
Em C      D Hm   C F7#   E4- H7
И   этот вечер мне  душу лечит

Припев:
  Em C        D        Hm
      Зеленоглазое такси
  Em C         D          G H
      Притормози притормози
  Em C       D         Hm
      И отвези меня туда
  Em C           D            G
      Где будут рады мне всегда
          E4- H7
      Всегда
      
Там и не спросят где меня носит
Там я-то знаю все понимают

Припев. (3 раза)


  Em(II)       C          D            Hm-Hm7(II)
e|-----3------|-------0--|-------5--4-|----------------|-
H|-------5----|-----1----|-----3------|----------3-----|-
G|---4------4-|---0------|---2--------|-----2-4----2-4-|-
D|-2----------|----------|-0----------|---4------------|-
A|------------|-3--------|------------|-2--------------|-

  C                                          H(II)
e|-------0----|-------0----|----------2-0---|---------7----|
H|-----1------|-----2------|----------------|-------4------|
G|---0------0-|---3------3-|-------4--------|-----4-------4|
D|------------|-4----------|---2-4--------3-|---4-------3--|
A|-3----------|------------|-2--------------|-2------------|

  Em(II)       C          D              Hm(II)
e|-------3----|-------0--|-------5----4-|----------2-----|-
H|------------|-----1----|-----3----3---|-------3------3-|-
G|---0-4----4-|---0------|---2----------|-----4------4---|-
D|-2----------|----------|-0------------|---4------------|-
A|------------|-3--------|--------------|-2--------------|-

  C                                      H(II)     C(III)
e|-------0--|-------0--|----------2-----|---------7-----|
H|-----1----|-----2----|----------------|-------4-----5-|
G|---0------|---3------|-------4------4-|-----4-----5---|
D|----------|-4--------|---2-4------3---|---4-----------|
A|-3--------|----------|-2--------------|-2-------------|

Соло в куплете:
e|----2--5--3--3-2-3-2-0--3-3-3-3--2-2-0---|-
H|-0-------------------------------------3-|-

e|----2--5--3--3-2-3-2-0--3-3-3-3--2-3-5-7-|-
H|-0---------------------------------------|-

e|----2--5--3--3-2-3-2-0--3-3-3-3--2-2-0---|-
H|-0-------------------------------------3-|-

e|----2--5--3--3-2-3-2-0--3-3-3-3--2-3-5-7-|-
H|-0---------------------------------------|-

e|-10-7-5--7--|
H|------------|


Бас-партия очень легкая: каждому аккорду соответствует свой басовый звук.
  Em G6/F# Em9/F# C   D  Hm(H) F7# E4-  G
D|-2-|-2-|---2--|---|-0-|-----|---|---|---|
A|---|---|------|-3-|(5)|--2--|---|-2-|---|
E|---|---|------|---|---|-----|-2-|---|-3-|

Ритм такой: |OxOOxO|OxOOxO|
(O-звук есть, x-звука нет)

Em 3) G6/F# 0) Em9/F# 2)  C 3)  D 2) Hm 2) F7# 2) E4- 2)
   5)       0)        0)    5)    3)    3)     2)     5)
   4)       0)        0)    5)    2)    4)     3)     4)
   2)       0)        0)    5)    4)    4)     2)     2)
   2)       2)        2)    3)    5)    2)     4)     2)
   X)       2)        2)    3)    2)    2)     2)     2)

H7 2)  G 3)  H 2)
   4)    3)    4)
   2)    4)    4)
   4)    5)    4)
   2)    5)    2)
   2)    3)    2)
Вариант 6    
Dm  Bb      C(3)  A
Вот   и   осталось
 Bb               G5    A(V)
Лишь   снять   уста-a-aлость
Dm  Bb       C(3)  A
И     этот   вечеp
  Bb          G5    A(V)
Мне   душу   ле-e-eчит

Припев:
         Dm         Bb
   О-о-о-о,
          C(3)       A
   Зеленоглазое такси
         Dm         Bb
   О-о-о-о,
            C(3)        A(V)
   Пpитоpмози, пpитоpмози
         Dm         Bb
   О-о-о-о,
          C(3)        A
   И отвези   меня туда
         Dm         Bb
   О-о-о-о,
             C(3)         A(V)
   Где будут pады мне всегда, всегда-а-а...

 Dm  Bb            C(3)  A
Там    и   не   спpосят
  Bb          G5    A(V)
Где   меня   но-o-oсит
 Dm  Bb        C(3)  A
Там    я-то   знаю
  Bb       G5   A(V)
Всё   понима-a-aют
   
Припев.

   Bb    C(3)   G5   A(V)
E|--1--|--3--|--3--|--5--|
H|--3--|--5--|--3--|--5--|
G|--3--|--5--|-----|--6--|
D|--3--|--5--|-----|--7--|
A|--1--|--3--|--2--|--7--|
E|--1--|--3--|--3--|--5--|