В начало
АБВГДЖЗИКЛМНОПРСТУФХЦЧШЭЮЯA-Z0-9
 
БИ-2 - Серебро (сингл)
Серебро (караоке-версия)    
Solo:
H---------5-------6--6--6--5-----------------------5---------6--6--6--5---------
G--5--5-------------------------7--5--4-----4/5--5---------------------------7--
D-------------7-------------------------------------------7---------------------

Chords: Am  F  Dm  E
                            
E-----------------0-----------------1-------1---1---1-----0--------------------
H----1-------1--------------------------------------------------3----1----0----
G--------2-------------2-------3------------------------------------------------
D---------------------------3-----------0-------0---------2----------2----0----
A----0----------------------------------------------------------2---------------
E-----------------------1-------------------------------------------------------
           
E-----------------0-----------------1-------1---1---1-----0------
H----1-------1--------------------------------------------------3-
G--------2-------------2-------3----------------------------------
D---------------------------3-----------0-------0---------2-------
A----0----------------------------------------------------------2--
E-----------------------1-------------------------------------------

     Am   F
Я не вернусь
Dm     Em    Am
Так говорил когда-то
  F  Dm    Em    Am
И туман глотал мои слова
    F    Dm    Em
И превращал их в воду
    Am  F
Я всё отдам   
Dm     Em   Am
За продолжение пути
      F
Оставлю позади
Dm    Em     Am  F  Dm  Em
Свою беспечную свободу

Припев:
   Dm    Em       Am
   Не потерять бы в серебре
      F
   Её одну
   Dm   Em
   Заветную

Проигрыш: Am   F  Dm  Em - 4 раза

Не по себе
От этой тихой и чужой зимы
С которой я на ты
Нам не стерпеть друг друга
И до войны
Мне не добраться никогда
Моя безумная звезда
Ведет меня по кругу

Припев.

А в облаках
Застыл луны неверный свет
И в нем перемешались города и я
Зову её несмело

Припев.

Перебор со "скрипом": 1ая(бас), 2ая(бас), 3я(бас), затем 4ую, 5ую и 6ую вместе

Аккорды:
   Ам берется как Gm, но на 5-ом ладу
   Dm берется как Hm, но тоже на 5-ом и со средним
   пальцем на 4-ой струне 6-го лада
   F и Em играются "в оригинале"