В начало
АБВГДЖЗИКЛМНОПРСТУФХЦЧШЭЮЯA-Z0-9
 
БИ-2 - Серебро (сингл)
Серебро (акустическая версия)    
Chords:  Am   F   Dm   E

Intro:
    Am
E--------0---------0---------0--------|
H--------1---------1---------1--------|
G------2---2-----2---2-----2---2------|
D-------------------------------------|
A----0----------0--------0------------|
E-------------------------------------|

Main part:
         Am        F         Dm        E         Am        F  
E------------0---------1-----------1---------0---------0---------1------
H------------1---------1-----------3---------0---------1---------1------
G----------2---2-----2---2-----2-----2-----1---1----2-----2-----2---2---
D------------------3---------0------------------------------3-----------
A--------0-----------------------------2---------0----------------------
E-----------------------------------------------------------------------

Я не вернусь                  Так говорил  ког--да-то и туман          

         Dm       E          Am          F         Dm        E
E------------1---------0----------0-----------1---------1---------0-----
H------------3---------0----------1-----------1---------3---------0-----
G----------2----2----1---1-----2-----2------2---2-----2---2-----1---1---
D--------0-------------------------------3----------0---------2---------
A-----------------2----------0------------------------------------------
E-----------------------------------------------------------------------

         Глотал мои  слова     И превращал их    В воду...

         Am        F         Dm         E       Am          F  
E------------0---------1----------1--------0----------0----------1------
H------------1---------1----------3--------0----------1----------1------
G----------2---2-----2---2-----2-----2----1---1----2-----2-----2---2----
D------------------3---------0------------------------------3-----------
A--------0------------------------------2-------0-----------------------
E-----------------------------------------------------------------------

Я все отдам                   За продолжение пути  оставлю  поза--ди     

         Dm       E          Am          F          Dm        E
E-----------1---------0----------0-----------1---------1---------0--0---
H-----------3---------0----------1-----------1---------3---------0--0---
G----------2---2----1----1----2-----2------2---2-----2---2-----1---1----
D--------0-------------------------------3----------0---------2---------
A-----------------2---------0-------------------------------------------
E-----------------------------------------------------------------------

         Свою беспечную сво-боду... 

Припев:
   Dm    Em       Am         |  Точного варианта перебора при
   Не потерять бы в серебре  |  исполнении припева не привожу,
      F                      |  поскольку постольку любого уго-
   Её одну                   |  раздит сыграть эти аккорды похитрее.. 
   Dm   E                    |  У кого не хватает воображения ре-
   Заветную..                |  комендуется исполнить простым боем..)

Не по себе
От этой тихой и чужой зимы
С которой я на "ты",
Нам не стерпеть друг друга.
И до войны
Мне не добраться никогда,
Моя безумная звезда
Ведет меня по кругу.

Припев.

Solo
H---------5-------6--6--6--5-----------------------5---------6--6--6--5---------
G--5--5-------------------------7--5--4-----4/5--5---------------------------7--
D-------------7-------------------------------------------7---------------------

Мелодия:  Am  F  Dm  E
                   
E-----------------0-----------------1-------1---1---1-----0-------------------
H----1-------1--------------------------------------------------3----1----0---
G--------2-------------2-------3----------------------------------------------
D---------------------------3-----------0-------0---------2----------2----0---
A----0----------------------------------------------------------2-------------
E-----------------------1-----------------------------------------------------
           
E-----------------0-----------------1-------1---1---1-----0---------
H----1-------1--------------------------------------------------3---
G--------2-------------2-------3------------------------------------
D---------------------------3-----------0-------0---------2---------
A----0----------------------------------------------------------2---
E-----------------------1-------------------------------------------

А в облаках
Застыл луны неверный свет,
И в нем перемешались города и Я
Зову её несмело..

Припев.

Проигрыш: Am F Dm E - 4 раза

      Am          F            Dm          E      
E---|------0----|------1----|------1----|------0----|---
H---|------1----|------1----|------3----|------0----|---
G---|----2---2--|----2---2--|----2---2--|----1---1--|---
D---|-----------|--3--------|--0--------|-----------|---
A---|--0--------|-----------|-----------|--2--------|---
E---|-----------|-----------|-----------|-----------|---

Проигрыш и мелодию можно исполнять под голосовое
сопровождение - различного рода звуки, подчеркивающие
звучание той или иной ноты.
Вариант 2    
Проигрыш для одной гитары

         Am       F        Dm       E                   F(пальцы)
 
--0---|------0-|--------|--1-1-1-|0-------|     //      |--------|
----3-|1---1---|--------|----3---|--3-1-0-|     //      |--------|
2-----|--2-----|2-------|----2---|--------|     //      |3-------|
------|--2-----|--3-2-3-|0-------|2-------|     //      |--4-2-4-|
------|0-------|--------|--------|--------|     //      |--------|
------|--------|1-------|--------|--------|     //      |1-------|

        
      Am       F        Dm       E  
     |------0-|--------|--1-1-1-|0-------|
     |1---1---|--------|----3---|--3-1-0-|
     |--2-----|2-------|----2---|--------|
     |--2-----|--3-2-3-|0-------|2-------|
     |0-------|--------|--------|--------|
     |--------|1-------|--------|--------|


      Am       F        Dm       E                   F(пальцы)
     |--------|--------|--1-1-1-|0-------|   //      |--------|
     |1-1-1-1-|1-------|----3---|--0-3-1-|   //      |2-------|
     |----2---|--2-----|----2---|--0-----|   //      |--3-----|
     |----2---|----3-2-|0-------|2-------|   //      |----4-3-|
     |0-------|--------|--------|--------|   //      |--------|
     |--------|1-------|--------|--------|   //      |1-------|


      Am       F        Dm       E        Am       F  
и т. д.
     |--0-----|--------|--1-1-1-|--------|--0-0-0-|--------|--1-
     |----1-1-|--1-1-1-|--3-3-3-|--------|--1-1-1-|--1-1-1-|--3-
     |----2-2-|--2-2-2-|--2-2-2-|--------|--2-2-2-|--2-2-2-|--2-
     |--------|--3-3-3-|0-------|--------|--------|--3-3-3-|0---
     |0-------|--------|--------|--------|0-------|--------|----
     |--------|1-------|--------|0-------|--------|1-------|----
                                   яНеВернусь
            так

Аккорды из 3-х звуков на Dm лучше сыграть большим,
указательным и средним (о правой руке)
Для F на всякий случай написал расстановку пальцев
левой руки (1-указательный, ..., 4-мизинец),
для остальных - все стандартно более-менее.
Вариант 3    
Проигрыш

e-5-7-8-7-5^7^5---5^7^5---0-1-3-1-0^1^0---------------------3-1-0^1^0---------
h-------0-------6---------------3-------3--------b3---b5------0-------3---3-3-
g---------------5-----------------2------4^5^4--------------------------1-----
D---------7-------------------0---------2-----------5----6--0---------2-----2-
A-----0----------------------------------------2--5----7----------------------
E-----------------------------------------------------------------------------

e------------------------------------5-5--3-1-0^1^0---7-7-7-7-8-7-5------------
h-3-3----------------------------5-5--------0-------3---------------5-5-5-5-6-5
g-------------2-2-2-2/4-4--5-5-5-----------------------------------------------
D-0-0-1/2-2-2-----------------------------0---------2-------------7------------
A---------------2--------------0----------------------------0-------------0----
E-----------------------0------------------------------------------------------

e-----------------5-5-5-5/7---
h-3---3-3-3-3/5-5-------------
g---1-------------------------
D-2-------0---2-------0-------
A-------------------------0---
E-----------------------------