В начало
АБВГДЖЗИКЛМНОПРСТУФХЦЧШЭЮЯA-Z0-9
 
Наумов Юрий - Guitar stories
December night by the fireplace    
D#||-----------------------------------||--------0h1h3-3p0-3p1h3----3-----| 
A#||--1--1----1--1----0----------------||---------------------------------| 
F#||-----------------------------------||*--------------------------------| 
C#||-----------------------------------||*--------------------------------| 
G#||--2--2----2--2----2--------2-2-2-2-||---3-----------------------------| 
D#||--3--3----3--3----3--------3-3-3-3-||------------------1--------------| 

-------0h1h3-3p0-3p1h3----3-----|--0h3p-0-3p--0-----------------| 
--------------------------------|---------------1------1-----1--| 
--------------------------------|-------------------------2-----| 
--------------------------------|-------------------------------| 
--3-----------------------------|---------------0---------------| 
-----------------1--------------|--0----------------------------| 
  
--------------0h3-------------|-------0h1h3-3p0-3p1h3----3-----| 
--5p3--------------4-4--3--1--|--------------------------------| 
------5-----------------------|--------------------------------| 
--3---------------------------|--------------------------------| 
------------------------------|--3-----------------------------| 
--------------3---------------|-----------------1--------------| 
  
-------0h1h3-3p0-3p1h3----3-----|--0h3p-0-3p--0-----------------| 
--------------------------------|---------------1------1-----1--| 
--------------------------------|-------------------------2-----| 
--------------------------------|-------------------------------| 
--3-----------------------------|---------------0---------------| 
-----------------1--------------|--0----------------------------| 
  
----------------------0-1-0---|--0----0--1----------------| 
--5p3-----------0-1-3-------1-|--1---------3-----3--3--3--| 
------5-------2---------------|--2---------------2--2--2--| 
--3---------------------------|--3---------------3--3--3--| 
--------------0-------3-------|---------------------------| 
------------------------------|---------------------------| 
  
----------0-----------------|------------------------------| 
--3----3----1-----0-0-1-0---|--1--------1-3-1--1----0------| 
--0-----------------------0-|--2------2--------------------| 
--2-------------------------|--3----3----------------------| 
--2-------------------------|---------------2--2----2------| 
--0-------------------------|---------------3--3----3------| 
  
-------0h1h3-3p0-3p1h3------------|--0----0--1----------------| 
----------------------------0-1-3-|--1---------3-----3--3--3--| 
--------------------------2-------|--2---------------2--2--2--| 
----------------------------------|--3---------------3--3--3--| 
--3-------------------------------|---------------------------| 
-----------------1----------------|---------------------------| 
                                                            3x 
----------0-----------------|-------------------------------|| 
--3----3----1-----0-0-1-0---|--1--------1-3-1--1----0-------|| 
--0-----------------------0-|--2------2--------------------*|| 
--2-------------------------|--3----3----------------------*|| 
--2-------------------------|---------------2--2----2-------|| 
--0-------------------------|---------------3--3----3-------|| 
  
-------0h1h3-3p0-3p1h3----0--------|----------------------|| 
-----------------------------3--1--|----------------------|| 
-----------------------------------|--0h2p0---------------|| 
-----------------------------------|----------------------|| 
--3--------------------------------|--3-------------------|| 
-----------------1-----------------|----------------------||