В начало
АБВГДЖЗИКЛМНОПРСТУФХЦЧШЭЮЯA-Z0-9
 
БИ-2 - ...и корабль плывет
Волки    
H (баре на 7 - ом ладу)
Волки уходят в небеса
A#( баре на 6-ом ладу)
Горят холодные глаза
G (баре на 3-ем ладу)               F#
Приказа верить в чудеса не поступало
И каждый день другая цель
То стены гор, то горы стен
И ждет отчаянных гостей чужая стая

Припев:
   H
   Спиной 
                A#
   К ветру и все же
                    G
   Выбраться может
                F#
   Чья-то душа
   Спасет,
   Но не поможет
   Чувствую кожей
   Пропащая

Не помнят слов, не видят снов
Переросли своих отцов
И, кажется, рука бойцов колоть устала.
Позор и слава в их крови, 
Хватает смерти и любви
Но сколько волка не корми, ему все мало.

Припев.

H
Волки уходят
       A#
Волки уходят
         G
Волки уходят
         F#
Волки уходят...
Вариант 2    
               Сm
Волки уходят в небеса
      D
Горят холодные глаза
        Fm                     G7
Приказа верить в чудеса не поступало
И каждый день другая цель
То стены гор, то горы стен
И ждет отчаянных гостей чужая стая

Припев:
       Cm
   Спиной 
                D
   К ветру и все же
               Fm
   Выбраться может
           G7
   Чья-то душа
   Спасет,
   Но не поможет
   Чувствую кожей
   Пропащая

Не помнят слов, не видят снов
Переросли своих отцов
И, кажется, рука бойцов колоть устала.
Позор и слава в их крови, 
Хватает смерти и любви
Но сколько волка не корми, ему все мало.

Припев.

Волки уходят
Волки уходят
Волки уходят
Волки уходят...
Еще не вечер    
Figure:  Em  Em7   C   Csus (2 раза)

Em
У тебя война
               C  Csus  C9
Все горит в руках
Em
Линия ума
            C   Csus  C9 
Лезвие в ладонях

Am
И вино срывает голос
Em
Как стекло перемололось
F#                        C   C9   C
И однажды превратилось в пыль

Припев:
   Em
   Еще не вечер
                     F# G F#
   Под самым сердцем
   Am Am/H Am/C Am/H
   Чужое тело
   Em
   Еще не поздно
                        F#  Am  Am/H Am/C Am/H
   Осколок солнце не догорело

Figure.

За тобою боль
Как слепая месть
Но покажет бой
Дом уже не крепость
И вода пойдет под камень
Сточит быстрыми ручьями
И однажды превратится в пыль

Припев.

Figure.

Coda: Em Em7 Em  Em dim
Феллини    
Rhythm Melody/Intro: 

   D5   F5   D5   F5   D5   F5   A5   C5
G|-7-7-/10-7-7-7-/10-7-7-7-/10-------------|
D|-7-7-/10-7-7-7-/10-7-7-7-/10-7-7-7-/10---| - основная мелодия песни.
A|-5-5-/8- 5-5-5-/8- 5-5-5-/8--7-7-7-/10---|
E|-----------------------------5-5-5-/8- 0-|

     D5        D5    D5        A5        D5    D5 D5 D5 A5
В одном из неснятых фильмов Федерико Феллини,
    D5          D5    D5       A5         D5    D5 D5 D5 A5
На тоненькой льдине,        в бокале "Мартини".
  D5     D5  D5 A5     D5       D5  D5 A5
Герой на героине,     героиня на героине,
   D5       D5   D5  A5            D5  D5 D5 D5 A5
И двойная сплошная пролегла между ними.            

Между ними секунду назад было жарко,
А теперь между ними лежат снега Килиманджаро.
Патроны в магазине, глазами на резине,
И отравленный воздух глотают так жадно.
                                    Зря...   
Припев: (x2)
    D5                A5
   Зря ты думаешь о смерти.
    D5                              A5
   Я хочу найти письмо в пустом конверте
          D5 E5 F5  G5
       G|-7-/9-/10-/12-|
       D|-7-/9-/10-/12-|       или       G|-7-/9-/10-/12-|
       A|-5-/7-/8--/10-|   то же самое
       E|--------------| на одной струне
   И прочесть        тебе.           
 
Rhythm Melody/Solo: D5 D5 A5 A5  

E|-5-5-6-5----------|
B|---------3-/5-/6--|

В одном из неснятых фильмов Федерико Феллини
Лежат снега Килиманджаро.
Герой на героине, героиня на героине,
И отравленный воздух глотают так жадно.
     
Припев. (х2)

Rhythm Melody/Solo: D5 D5 A5 A5
Вариант 2    
Для веpсии с БИ-2 рифф пpимеpно такой:
D |-----------------------------|
A |55/\--5-55/\--5-55/\--5---/\-|
E |------------------------55---|

/ \ - пальцем ведете до конца гpифа и возвpащаетесь обpатно

Если pиффом аккомпаниpовать неyдобно можно
игpать квинты, как написано ниже, или
вместо квинт соответствyющие аккоpды Dm A
пpавда тогда y вас не бyдyт отличаться по звyкy
кyплеты с пpипевом, т.к. в кyплете аккоpды такие же
поэтомy лyчше всего на акyстике игpать так:
кyплеты - pифф, пpипев- аккоpды или квинты

     D5                         A5     D5  A5
В одном и неснятых фильмов Фpедеpика Феллини
Hа тоненькой льдине в бокале маpтини
Геpой на геpоине, Геpоиня на геpоине,
И двойная сплошная пpолегла междy ними

Междy(Аy)ними секyндy назад было жаpко
А тепеpь междy ними лежат снега Килиманджаpо
Патpоны в магазине, глазами на визине,
И отpавленный воздyх глотают так жадно
 D5
Зpя

 D5                  A5
Зpя ты дyмаешь о смеpти
Я хочy найти письмо в пyстом конвеpте
e |--------------------------|
B |--------------------------|
G |---7-777/9999/10101010/14-|
И пpочесть                тебе

Пpипев. - 2 pаза


В одном и неснятых фильмов Фpедеpика Феллини
Лежат снега Килиманджаpо
Геpой на геpоине, Геpоиня на геpоине,
И отpавленный воздyх глотают так жадно

Пpипев. - 2 pаза

Hаy-наy-наy-аy-аy-а...
Вариант 3    
Проигрыш:
1|-------------------------------------------------
2|-3-------------3--------------3----1----------3--
3|---------------------------------------3---2-----
4|-0--------------0--------------0--------------0--
5|-----3---1---0------3---1---0------3---1---0-----
6|-------------------------------------------------
 Лучше вторую струну почти все время держать зажатой на третьем ладу  

 В первом куплете проще играть так(каждый аккорд только 1 раз):

    Dm      C      Bb       A      A*       
1|------------------------------------
2|--3-------1----------------------2--
3|------------------3-------2---------
4|--0------------------------------2--
5|----------3-------1-------0---------
6|------------------------------------

 А вот второй куплет играется немного по другому:
 Первые две строки:

    Dm      C      Bb       A      A*       
1|----1-------0-----------------------
2|--3-------1---------3------------2--
3|------------------3-------2---------
4|--0------------------------------2--
5|----------3-------1-------0---------
6|------------------------------------

Вторые две строки так:

    Dm      C      Bb       A      A*       
1|--1-------0----------------------0--
2|--3-------1-------1-------2------2--
3|------------------3-------2---------
4|--0------------------------------2--
5|----------3-------1-------0---------
6|------------------------------------

Припев играется так (каждый аккорд только 1 раз):

    Dm       C       Bb     A     A*        
1|--1-1-----0-0-------------------0--
2|--3-3-----1-1-----3-3-----2-----2--
3|------------------3-3-----2--------
4|--0-----------------------------2--
5|----------3-------1-------0--------
6|-----------------------------------

Dm         C        Bb      A     A* Dm     C Bb A A*
В одном из неснятых фильмов Федерико Феллини
 Dm           C    Bb A A* Dm    C     Bb A A*
На тоненькой льдине    в бокале мартини
 Dm    C   Bb  A A*  Dm      C   Bb  A A* Dm
Герой на героине,   Героиня на героине
  C       Bb       A    A*   Dm     C  Bb A A*  
И двойная сплошная пролегла между ними

Между ними секунду назад было жарко
А теперь между ними лежат снега Килиманджаро
Патроны в магазине, глазами на визине
И отравленный воздух глотают так жадно

Припев(x3):

Dm      C  B    A    A*
Зря ты думаешь о смерти
Dm      C     B               A   A*
Я хочу найти письмо в пустом конверте
Dm        C Bb A  A*
И прочесть    тебе  

потом играется как в первом куплете 

Подбор: GrifON (cheganov@ufacom.ru)
Полковнику никто не пишет    
           Gm
Большие города
       D#
Пустые поезда
          Cm
Hи берега, ни дна
          D(V)
Все начинать сначала
Холодная война
И время, как вода
Он не сошел с ума
Ты ничего не знала...

Припев:
 (Gm)              D#
Полковнику никто не пишет
        (Gm)   F(VIII)D# F D#
Полковника никто не ждет...

Hа линии огня
Пустые города,
В которых никогда
Ты раньше не бывала
И рвутся поезда
Hа тонкие слова
Он не сошел с ума
Ты ничего не знала...

Припев.

Если кому в лом ставить все эти занудные
баррэ, можно просто играть на тон выше:
Am  F  Dm  E  и т.д.

В припеве играются не аккорды, а рифф. Hо я
не обладаю такими талантами, чтобы подбирать
риффы на акустической гитаре, поэтому нарисовал
просто тональности.
Вариант 2    
Intro:
Gm          D#
Cm          D 

     Gm
Большие города
     D#
Пустые поезда
       Cm
Ни берега ни дна
        D
Все начинать сначала
     Gm
Холодная война
      D#
И время как вода
        Cm
Он не сошел с ума
        D
Ты ничего не знала

Припев:
          Gm      Gm/G#    D#
   Полковнику никто не пишет
         Gm   Gm/G#
   Полковника никто 
     F Fsus F
   Не ждет

На линии огня
Пустые города
В которых никогда
Ты раньше не бывала
И рвутся поезда
На тонкие слова
Он не сошел с ума
Ты ничего не знала

Припев.

Bridge:

D#        F  Dm
D#        F
Gm        D#
Cm        D

Припев.

Соло/coda:

Gm    F   B   Dm Gm    F   B   D  / 4 раза
Вариант 3    
1|--6------5-------------------6------5----------
2|-------------------6-4--4-6--------------------
3|----7-7---7-7--7---------------8-8--8-8--8-7-
4|------------------------------------------------
5|------------------------------------------------
6|------------------------------------------------

            G
Большие города
           D#
Пустые поезда
               C
Ни берега, ни дна
                   D
Всё начинать сначала
Холодная война
И время как вода
Он не сошел с ума
Ты ничего не знала

Припев:
                 G               D#
Полковнику никто не пишет
1|-------------------------------------
2|-------------------------------------
3|-----5-3-----------------------------
4|---5-----5------------------8-8--8-8
5|-5---------5--5-6-5--8-6--6-6--6-6
6|--------------------------------------
                 G                       F
Полковника никто не ждет
1|-----------------------------6-6-5--6-6-5
2|-------------------------------------------
3|-----5-3----------------------------------
4|---5-----5--------------------------------
5|-5---------5--5-6-5--8-6----------------
6|------------------------------------------

На линии огня
Пустые города
В которых никогда
Ты раньше не бывала
И рвутся поезда
На тонкие слова
Он не сошел с ума
Ты ничего не знала

Solo (могут быть ошибки)
1|-----6----5--6-8-10-----6-----5--6-8-6------6----5--6-8-10---
2|-4-6--4-6---4-6--8--4-6--4-6----4-6-6--4-6--4-6---4-6--8-10
3|------------------------------------------------------------------
4|------------------------------------------------------------------
5|------------------------------------------------------------------
6|------------------------------------------------------------------
1|--6------5-------------------6------5----------
2|-------------------6-4--4-6--------------------
3|----7-7---7-7--7---------------8-8--8-8--8-7(slide to 19)
4|------------------------------------------------
5|------------------------------------------------
6|------------------------------------------------

Припев.

Solo
1|-------------------------------------------
2|-------------------------------------------
3|-------------------------------------------
4|------------------10--------------10-------
5|----12-13-12-13------12-13-12-13-----------
6|-10-----------------10---------------------
1|-------------------------------------------
2--------------------------------------------
3|-------------------------------------------   x4
4-----------10----------15-13-12-10-12-------
5|---12-13----13-12---------------------12---
6-10-----------------------------------------
Вариант 4    
Hm
Большие города,
G(баррэ)
Пустые поезда,
Em
Ни берега, ни дна
F#m
Все начинать сначала
Холодная война,
И время как вода,
Он не сошел с ума,
Ты ничего не знала

Припев:
   Нm               G
   Полковнику никто не пишет
   Нm               А
   Полковника никто не ждет...
   На линии огня,
   Пустые города
   В которых никогда
   Ты раньше не бывала
   И рвутся поезда
   На тонкие слова
   Он не сошел с ума
   Ты ничего не знала

Припев.
Вариант 5    
Вступление и первый куплет:

  Боль-ши-е  го-ро-да              Пус-тые по-ез-да
1|------------------------------------------------------------
2|------------------------------------------------------------
3|------------------------------------------------8-----------
4|------------------5-----------------------------8-----------
5|-----6--5--3------5-----------------------------6-----------
6|--------------6---3-----------------------------------------
  Ни бе-ре-га ни дна       Все на-чи-нать  сна-ча-ла
1|------------------------------------------------------------
2|------------------------------------------------------------
3|-----------------5------------------------------7-----------
4|-----------------5------------------------------7-----------
5|-----------------3------------------------------5-----------
6|------------------------------------------------------------

Второй куплет аналогично первому, но без вступления.

  Холодная война.  И время, как вода  
  Он не сошел с ума.  Ты ничего не знала.

Припев:       Пол-ков-ни-ку ни-кто    не пи-шет
1|------------------------------------------------------------
2|------------------------------------------------------------
3|-----------5--3---------------------------------------------
4|-------5---------5--------------------------------8-8----8-8
5|---5-----------------5-----5--6--5------5--8--6---6-6----6-6
6|------------------------------------------------------------
    Пол-ков-ни-ка ни-кто                 не ждет
1|----------------------------------------6-6--5-5--6-6--5-5-
2|------------------------------------------------------------
3|-----------5--3---------------------------------------------
4|-------5---------5------------------------------------------
5|---5-----------------5-----5--6--5--------------------------
6|------------------------------------------------------------

Третий куплет играется глушенным "арпеджио"

  На линии огня                   Пустые города
1|------------------------------------------------------------]
2|------------------------------------------------------------]
3|--------------6-7-6---6-7-6---6-7-6---6-7-6---6-7-6---6-7-6-]
4|------------5-------5-------5-------5-------5-------5-------]
5|------------------------------------------------------------]
6|------------------------------------------------------------]
 В которых никогда                   Ты раньше не бывал-а     
[-------------------------------------------------------------
[-------------------------11----------------------------------
[--6-7-6---6-7-6---8-10-8------------8-10-8--------------7----
[5-------5-------8-------------8-8-8-------------------7------
[----------------------------------------------------5--------
[-------------------------------------------------------------

Четвертый куплет

 И рвутся поезда           На тонкие слова         Он не сош-
1|-----------------------------------------------------------]
2|-------------------8------------8------------8------------8]
3|---------------6-7----7-6---6-7----7-6---6-7----7-6---6-7--]
4|-------------5-------------------------5-------------------]
5|-----------------------------------------------------------]
6|-----------------------------------------------------------]
-ел с ума              Ты ничего не знала
[-------------------------------------------------------------
[---------------11---------------11---------------------------
[--7-6---8-10-8-----------8-10-8------------------------------
[------8------------8-8-8-------------7-7---7-7---7-7---7-----
[-------------------------------------5-5---5-5---5-5---5-----
[-------------------------------------------------------------

Припев.

Соло1 сразу после припева
1|-----6------5~~~11~13~15------6-----5~~~10~11~10------------
2|-4-6----4-6-----11~13~15--4-6---4-6-----10~11~10------------
3|------------------------------------------------------------
     ~ это скольжение
1|-----6------5~~~11~13~15~17[держать до следующей части]-----
2|-4-6----4-6-----11~13~15~17[держать до следующей части]-----
3|------------------------------------------------------------

Соло2 после долгой ноты соло1
1|-6--------5-----------------6--------6--------5-------------
2|------------------6-------6---------------------------------
3|---7-7------7-7-7---8---8--------------7-8------8-8--8--7~19
Варвара    
     Gm            D#            Cm           F
A|-------------|-6-6-------6-|-3-3-------3|-------------|BA
E|-3-3-------3-|-------------|------------|-1-1-------1-|SS

Gm     D#      Cm      F         Gm   D# Cm F
 Как грустно и очень обычно все вышло
Gm  D#      Cm      F         Gm       D# Cm F
 Ушла от меня и в ночь теперь слезно кричу
Gm     D#     Cm      F     Gm        D#    Cm F
 Мне просто обидно шаги одиночества слышать
Gm    D#      Cm        F        Gm        D# Cm F
 И страшно подумать и вряд ли я жизнь доживу

    Gm     D# Cm F
   Варвара         (4 раза)


Gm    D#      Cm        F             Gm   D# Cm F
 С тобой я готов был бежать на край света
Gm  Am(V)?  A#     Cm      D
 Но ты изменила сама ты туда удрала
Gm   D#         Cm     F        Gm       D# Cm F
 Порвалась струна и теперь моя песенка спета
Gm  D#        Cm F        Gm    D# Cm F
 И жизни мне нет   вот такие дела

    Gm     D# Cm F
   Варвара         (4 раза)

Проигрыш:
G|-------7-8---|------------|------------|-----7-8-|--5--5-------------|BA
D|-------------|------------|------------|---------|-------------------|SS
A|-------------|-3--5-6-5-3-|------------|---------|-3--3---30---------|BA
E|--3-3--------|------------|--111--222--|-3-3-----|-----------111-222-|SS

G|-------7-8---|--5--5------|--------7-8-|---------|-------------------|BA
D|-------------|------------|------------|---------|-------------------|SS
A|-------------|-3--3--30---|------------|-5-------|-------------------|BA
E|--3-3--------|----------1-|-11-2-3-----|---------|-------------------|SS

Когда-то был счастлив а счастье так и ушло
За счастьем несчастье так грустно вот так и пошло
И ждать на крылечке уже бесполезно тебя
Ох как далеко далеко далеко от меня ты

    Gm     D# Cm F
   Варвара       ё-о (4 раза)

    Gm     D#      Cm F
   Варвара ага угу     но где ты (10 раз)
Вариант 2    
Em    C     Am     D    Em      C Am D
Как гpyстно и очень обычно все вышло
Ушла от меня и в ночь тепеpь слезно кpичy
Мне пpосто обидно шаги одиночества слышать
И стpашно подyмать и вpяд ли я жизнь доживy

   Em C Am D
   Ваpваpа - 4 pаза

С тобой я готов был бежать на кpай света
Em  F#m G Am  H
Hо ты изменила сама ты тyда yдpала
Поpвалась стpyна и тепеpь моя песенка спета
И жизни мне нет вот такие дела

   Em C Am D
   Ваpваpа - 4 pаза

Когда-то был счастлив а счастье так и yшло
За счастьем несчастье так гpyстно вот так и
пошло
И ждать на кpылечке yже бесполезно тебя
Ох как далеко далеко далеко от меня ты

   Em C Am D
   Ваpваpа e:-о - 4 pаза

Em C Am D
Ваpваpа ага yгy но где ты - 10 pаз
Вариант 3    
Вступление: F#m D Hm E F#m

D          Hm      E
ну где ты Варвара ага угу?

  F#m D Hm E - 2 раза

F#m     D       Hm      E         F#m D Hm  E
  Как грустно и очень обычно все вышло
F#m  D     Hm       E           F#m       D Hm E
  Ушла от меня и в ночь теперь слезно кричу
 F#m    D      Hm      E     F#m       D    Hm E

  Мне просто обидно шаги одиночества слышать
 F#m   D       Hm        E         F#m      D Hm E
  И страшно подумать и вряд ли я жизнь доживу

    F#m     D Hm E
   Варвара         4 раза

  F#m  D      Hm         E             F#m D Hm E
  С тобой я готов был бежать на край света
  F#m E      A     Hm      E/C#?  E
  Hо ты изменила сама ты туда удрала
F#m    D       Hm      E         F#m      D  Hm E
  Порвалась струна и теперь моя песенка спета
    F#m        D  Hm E        F#m   D Hm  E
  И жизни мне нет      вот такие дела

    F#m     D Hm E
   Варвара         4 раза

Когда-то был счастлив а счастье так и ушло
За счастьем несчастье так грустно вот так и пошло
И ждать на крылечке уже бесполезно тебя
Ох как далеко далеко далеко от меня ты

    F#m     D Hm  E
   Варвара       ё-о  4 раза
    F#m     D     Hm E
   Варвара ага угу    но где ты?
Вариант 4    
Am F Dm G Am F          Dm      G
             Ну где ты Варвара? Ага угу    
Am F Dm G Am F Dm G

Am   F        Dm      G         Am    F   Dm   G
Как гpyстно и очень обычно все вышло
Ушла от меня и в ночь тепеpь слезно кpичy
Мне пpосто обидно шаги одиночества слышать
И стpашно подyмать и вpяд ли я жизнь доживy

   Am     F  Dm G
   Ваpваpа - 4 pаза

С тобой я готов был бежать на кpай света
Hо ты изменила сама ты тyда yдpала
Поpвалась стpyна и тепеpь моя песенка спета
И жизни мне нет вот такие дела

   Ваpваpа - 4 pаза

Когда-то был счастлив а счастье так и yшло
За счастьем несчастье так гpyстно вот так и
пошло
И ждать на кpылечке yже бесполезно тебя
Ох как далеко далеко далеко от меня ты

   Ваpваpа ё-о - 4 pаза

Ваpваpа ага yгy но где ты - 10 pаз
Никто не придет    
Am
Я забыл с чем рифмуется "жди"
 F
Hо у времени много слов
 G
Я увидел как впереди
 E
Точит косу старуха-любовь
 Am
Снова краски меняет страх
 F
Hа плетень моих белых стен
 G
С темной ночи и до утра
 E
Черной женщины падает тень

Припев/Проигрыш:
   H5 F#5(IX) G5(X) F#5(IX)  H5 F#5(IX) G5(X) F#5(IX)

C  Em  C    Am
       ...Hикто не придет

Я накапливал звуки и сны
Hазывал это "белый джаз"
Все ушло с ее легкой руки
В черных клавиш собачий вальс
Я писал о тебе белый стих
И вмещал весь словарный запас
В танец дикий твоих чернил
То что делало слабыми нас

Припев.

Припев весьма условный, поскольку исполняются не аккорды, а рифф.
В акустическом вариантне это будет звучать довольно глупо, 
поэтому указаны лишь примерные тональности.
И корабль плывет    
Figure/coda: Hm    F#   (2 раза)
             Em    D    F# 

          Hm         F#
Сколько звезд на погоны
    Hm     F#
Добыли в боях
     Em        D
На пустых полигонах
      F#
В неведомых снах

Дайте небо под крылья
Подстреленных птиц
Журавлиному клину
Скорую помощь

Припев:
         G
   Отпустите синицу 
        A
   На верную смерть
         F#               Hm
   Пусть ее приласкает свобода
        G
   И корабль плывет
              A
   И сквозь колотый лед
         F#           G    F#
   Я смотрю в эту черную воду

Figure.

Никого не зову
Не жалею не плачу
У вас на яву
У меня на удачу
И луна как стекло
Не любила не грела
Никого не ждала
Ничего не хотела

Припев.

Coda.
Вариант 2    
Аккорды:   Cm G  Cm G  Fm D# G
В припеве: G# A# G  Cm    G# A# G G# G
 
Вступление:
e|-----------------------------------------------------------
b|-----------------------------------------------------------
g|------8-10----------------------8-8-10---------------------
d|-8-10--------------8-8-8-10-10----------------8-8-8-10-10--
a|-----------10-10----------------------10-10----------------

e|------------------------------------
b|------------------------------------
g|-8-8-10-----------------7-7-10-10~--
d|--------------8-8-8-9-9-------------
a|--------10-10-----------------------

Соло:
e|-----11-13-15----------------------------------8----8-10-15-
b|-13------------8-9-8---------------------9----9---9---------
g|----------------------8--------------------10---------------
d|------------------------10-10-10-10-9--9--------------------
a|-------------------------------------10---------------------

e|------------------------------------------------6-8---8--11-10-
b|-------------------9-8----------------------8-9-----9----------
g|---------8-10-8-10----------------8-10---10--------------------
d|----8-10--------------------8-10-------8-----------------------
a|-10-------------------8-10-------------------------------------

e|-15-16-15-16-15-16-15-16----6-8--
Счастье    
Intro: Gm   Gm/G#  Gm/D#  D - 2 раза

Gm
Если огонь пепел 
Gm7
Тень это часть света 
Cm        Cm6  Cm7  Gm9  Gm  
Счастье мое где ты 
Только в руках ветер 
Был а теперь нету 
Счастье мое где ты 

Bridge:  D#  F  Gm7 (3 раза)
         Cm  D# D

И как хрусталь слезы 
Если не ты кто же 
Песню допеть сможет 
Бьется в окно ветер 
Ночь как конец света 
Счастье мое где ты 

И за тобой следом 
Где никогда не был 
Между землей и небом 
Бьется в окно ветер 
Ночь как конец света 
Счастье мое где ты 

Coda (ad finitum):         Gm9 Gm
                     Моё счастье - 2 раза
                           Сm  F#/D
Мой друг    
Hm      G        D     A       Hm    G  D  A
После трудного дня приходит усталость
Hm   G           D          A         Hm  G  D A
И теперь только нужно чуть-чуть отдохнуть
Hам от прошлых побед ничего не осталось
И ушедших обратно уже не вернуть

Припев:
    Hm      G  D       A         Hm  G  D
   Мой друг      никогда не грустит
    A          Hm  G  D   A         Hm
   И пьет эту ночь      вместе со мной

Остывающий город в холодную вечность
Собирает и строит свои корабли
Все случится опять и новые песни
Как начало дорог в продолженьи пути

Припев.
Вариант 2    
Em(E)      C        D       G     Em    C D G
    После трудного дня приходит усталость
Em(E)         C        D       G     Em     C D G
    И теперь только нужно чуть-чуть отдохнуть
    Hам от прошлых побед ничего не осталось
    И ушедших обратно уже не вернуть

Припев:
       Em(E)    C      D      G
       Мой друг.........никогда не грустит 
       Em(E)      C        D       G
       И пьет эту ночь......вместе со мной
    
       Остывающий город в холодную вечность
       Собирает и строит свои корабли
       Все случится опять и новые песни
       Как начало дорог в продолженьи пути

Припев.
Сердце    
Solo:
1|---------------------------------5-5-----7-7--------
2|-6-6-5-5---------6-6-5-5----------------------------
3|---------7-7-5-5---------7-7-5-5-----5-5-----5-5-7-9
4|----------------------------------------------------
5|----------------------------------------------------
6|----------------------------------------------------
 
1|-5-8-----10-7-8-5-5-8------10-7-8-5-5-7-10-12----|
2|-----6-5--------------6-5---------------------6-5|
3|-------------------------------------------------|
4|-------------------------------------------------|
5|-------------------------------------------------|
6|-------------------------------------------------|

Intro:    Am     F    C    C/H  Am

          Am   F
Из всех причин
          Am   F
Одна причина
          G
Что ты ушла
F             Am     F
С другим мужчиной
        Am      F
И где покой
        Am      F
Невозмутимо
       G      F
Чужой женой
           Am
Проходишь мимо

Bridge.

C    Dm     Am
И где же они
Dm       G
Чары любви
    F
Зачем

Припев:
         Am                Am/C    Am    Am/C    Am
   Ты разбиваешь мое сердце
         G               F
   Мы никогда не будем вместе

Figure/Coda:   Am  G  F - 2 раза

К чему стихи
Я погибаю
И ничего
Не понимаю
Хороших нет
Воспоминаний
Таков сюжет
Моих страданий

Bridge.

Припев.

Соda.
Деньги на ветер    
Figure:  Dm   F   C (2 раза)

Dm     Dm/F Dm
Деньги на ветер 
    F           C
Среди святых и виноватых 
Деньги на ветер 
Есть берег истины иной 
Деньги на ветер 
Пусть он придет в лучах заката
    B   C  B     C      Dm (figure)

Придет не трогайся он мой 

Деньги на ветер 
Слоновой кости вижу башни 
Деньги на ветер 
Разинутых упреков рты 
Деньги на ветер 
Пусть он придет в лучах заката
Придет он из моей мечты 

Припев:
     Gm               Gm/F#
   Идущий по самому краю 
   Несущий несущий зарю 
   B        Gm B     C  Dm
   Я тебя знаю я тебя жду 

От жизни где все как есть 
С годами приходит усталость 
Но сколько бы мне не осталось 
Я буду об этом петь 

Припев.
 
Coda:  Gm  Gm/F#  B  C (to fade)
Медленно схожу с ума    
Intro: Eb*  Gm  Cm  B

Intro riff:
           Eb*         Gm           Cm           B
G|-----------|-----------|------------|--------------|
D|-----8-----|-----8-----|-----8------|--------------|
A|-6-8---6-6-|-6-8---6-5-|-6-8---6-10-|-10-10-6-8-6--|
E|-----------|-----------|------------|--------------|

 Eb*
Этот город стал твоей тенью
 Gm
За которой я иду следом
 Cm
Опускаясь по течению
   B
Огней
 Eb*
И под действием ее взгляда
 Gm
Может мне еще пройти надо
 Cm
Сквозь горящие врата ада
 B
За ней

Припев:
                B     Eb
   Медленно схожу с ума...
    (Eb)        B     Eb
   Медленно схожу с ума...

И за тонким краем небосвода
Все мерещится неясным светом
Мне короткая свобода
И в ней
Этот город стал твоей тенью
За которой я иду следом
Опускаясь по течению
Огней

Припев.

Eb* - X68866 (струны 654321)
Серебро    
Solo:
H---------5-------6--6--6--5-----------------------5---------6--6--6--5---------
G--5--5-------------------------7--5--4-----4/5--5---------------------------7--
D-------------7-------------------------------------------7---------------------

Chords: Am  F  Dm  E
                            
E-----------------0-----------------1-------1---1---1-----0--------------------
H----1-------1--------------------------------------------------3----1----0----
G--------2-------------2-------3------------------------------------------------
D---------------------------3-----------0-------0---------2----------2----0----
A----0----------------------------------------------------------2---------------
E-----------------------1-------------------------------------------------------
           
E-----------------0-----------------1-------1---1---1-----0------
H----1-------1--------------------------------------------------3-
G--------2-------------2-------3----------------------------------
D---------------------------3-----------0-------0---------2-------
A----0----------------------------------------------------------2--
E-----------------------1-------------------------------------------

     Am   F
Я не вернусь
Dm     Em    Am
Так говорил когда-то
  F  Dm    Em    Am
И туман глотал мои слова
    F    Dm    Em
И превращал их в воду
    Am  F
Я всё отдам   
Dm     Em   Am
За продолжение пути
      F
Оставлю позади
Dm    Em     Am  F  Dm  Em
Свою беспечную свободу

Припев:
   Dm    Em       Am
   Не потерять бы в серебре
      F
   Её одну
   Dm   Em
   Заветную

Проигрыш: Am   F  Dm  Em - 4 раза

Не по себе
От этой тихой и чужой зимы
С которой я на ты
Нам не стерпеть друг друга
И до войны
Мне не добраться никогда
Моя безумная звезда
Ведет меня по кругу

Припев.

А в облаках
Застыл луны неверный свет
И в нем перемешались города и я
Зову её несмело

Припев.

Перебор со "скрипом": 1ая(бас), 2ая(бас), 3я(бас), затем 4ую, 5ую и 6ую вместе

Аккорды:
   Ам берется как Gm, но на 5-ом ладу
   Dm берется как Hm, но тоже на 5-ом и со средним
   пальцем на 4-ой струне 6-го лада
   F и Em играются "в оригинале"
Вариант 2    
Chords:  Am   F   Dm   E

Intro:
    Am
E--------0---------0---------0--------|
H--------1---------1---------1--------|
G------2---2-----2---2-----2---2------|
D-------------------------------------|
A----0----------0--------0------------|
E-------------------------------------|

Main part:
         Am        F         Dm        E         Am        F  
E------------0---------1-----------1---------0---------0---------1------
H------------1---------1-----------3---------0---------1---------1------
G----------2---2-----2---2-----2-----2-----1---1----2-----2-----2---2---
D------------------3---------0------------------------------3-----------
A--------0-----------------------------2---------0----------------------
E-----------------------------------------------------------------------

Я не вернусь                  Так говорил  ког--да-то и туман          

         Dm       E          Am          F         Dm        E
E------------1---------0----------0-----------1---------1---------0-----
H------------3---------0----------1-----------1---------3---------0-----
G----------2----2----1---1-----2-----2------2---2-----2---2-----1---1---
D--------0-------------------------------3----------0---------2---------
A-----------------2----------0------------------------------------------
E-----------------------------------------------------------------------

         Глотал мои  слова     И превращал их    В воду...

         Am        F         Dm         E       Am          F  
E------------0---------1----------1--------0----------0----------1------
H------------1---------1----------3--------0----------1----------1------
G----------2---2-----2---2-----2-----2----1---1----2-----2-----2---2----
D------------------3---------0------------------------------3-----------
A--------0------------------------------2-------0-----------------------
E-----------------------------------------------------------------------

Я все отдам                   За продолжение пути  оставлю  поза--ди     

         Dm       E          Am          F          Dm        E
E-----------1---------0----------0-----------1---------1---------0--0---
H-----------3---------0----------1-----------1---------3---------0--0---
G----------2---2----1----1----2-----2------2---2-----2---2-----1---1----
D--------0-------------------------------3----------0---------2---------
A-----------------2---------0-------------------------------------------
E-----------------------------------------------------------------------

         Свою беспечную сво-боду... 

Припев:
   Dm    Em       Am         |  Точного варианта перебора при
   Не потерять бы в серебре  |  исполнении припева не привожу,
      F                      |  поскольку постольку любого уго-
   Её одну                   |  раздит сыграть эти аккорды похитрее.. 
   Dm   E                    |  У кого не хватает воображения ре-
   Заветную..                |  комендуется исполнить простым боем..)

Не по себе
От этой тихой и чужой зимы
С которой я на "ты",
Нам не стерпеть друг друга.
И до войны
Мне не добраться никогда,
Моя безумная звезда
Ведет меня по кругу.

Припев.

Solo
H---------5-------6--6--6--5-----------------------5---------6--6--6--5---------
G--5--5-------------------------7--5--4-----4/5--5---------------------------7--
D-------------7-------------------------------------------7---------------------

Мелодия:  Am  F  Dm  E
                   
E-----------------0-----------------1-------1---1---1-----0-------------------
H----1-------1--------------------------------------------------3----1----0---
G--------2-------------2-------3----------------------------------------------
D---------------------------3-----------0-------0---------2----------2----0---
A----0----------------------------------------------------------2-------------
E-----------------------1-----------------------------------------------------
           
E-----------------0-----------------1-------1---1---1-----0---------
H----1-------1--------------------------------------------------3---
G--------2-------------2-------3------------------------------------
D---------------------------3-----------0-------0---------2---------
A----0----------------------------------------------------------2---
E-----------------------1-------------------------------------------

А в облаках
Застыл луны неверный свет,
И в нем перемешались города и Я
Зову её несмело..

Припев.

Проигрыш: Am F Dm E - 4 раза

      Am          F            Dm          E      
E---|------0----|------1----|------1----|------0----|---
H---|------1----|------1----|------3----|------0----|---
G---|----2---2--|----2---2--|----2---2--|----1---1--|---
D---|-----------|--3--------|--0--------|-----------|---
A---|--0--------|-----------|-----------|--2--------|---
E---|-----------|-----------|-----------|-----------|---

Проигрыш и мелодию можно исполнять под голосовое
сопровождение - различного рода звуки, подчеркивающие
звучание той или иной ноты.
Вариант 3    
Проигрыш для одной гитары

         Am       F        Dm       E                   F(пальцы)
 
--0---|------0-|--------|--1-1-1-|0-------|     //      |--------|
----3-|1---1---|--------|----3---|--3-1-0-|     //      |--------|
2-----|--2-----|2-------|----2---|--------|     //      |3-------|
------|--2-----|--3-2-3-|0-------|2-------|     //      |--4-2-4-|
------|0-------|--------|--------|--------|     //      |--------|
------|--------|1-------|--------|--------|     //      |1-------|

        
      Am       F        Dm       E  
     |------0-|--------|--1-1-1-|0-------|
     |1---1---|--------|----3---|--3-1-0-|
     |--2-----|2-------|----2---|--------|
     |--2-----|--3-2-3-|0-------|2-------|
     |0-------|--------|--------|--------|
     |--------|1-------|--------|--------|


      Am       F        Dm       E                   F(пальцы)
     |--------|--------|--1-1-1-|0-------|   //      |--------|
     |1-1-1-1-|1-------|----3---|--0-3-1-|   //      |2-------|
     |----2---|--2-----|----2---|--0-----|   //      |--3-----|
     |----2---|----3-2-|0-------|2-------|   //      |----4-3-|
     |0-------|--------|--------|--------|   //      |--------|
     |--------|1-------|--------|--------|   //      |1-------|


      Am       F        Dm       E        Am       F  
и т. д.
     |--0-----|--------|--1-1-1-|--------|--0-0-0-|--------|--1-
     |----1-1-|--1-1-1-|--3-3-3-|--------|--1-1-1-|--1-1-1-|--3-
     |----2-2-|--2-2-2-|--2-2-2-|--------|--2-2-2-|--2-2-2-|--2-
     |--------|--3-3-3-|0-------|--------|--------|--3-3-3-|0---
     |0-------|--------|--------|--------|0-------|--------|----
     |--------|1-------|--------|0-------|--------|1-------|----
                                   яНеВернусь
            так

Аккорды из 3-х звуков на Dm лучше сыграть большим,
указательным и средним (о правой руке)
Для F на всякий случай написал расстановку пальцев
левой руки (1-указательный, ..., 4-мизинец),
для остальных - все стандартно более-менее.
Вариант 4    
Проигрыш

e-5-7-8-7-5^7^5---5^7^5---0-1-3-1-0^1^0---------------------3-1-0^1^0---------
h-------0-------6---------------3-------3--------b3---b5------0-------3---3-3-
g---------------5-----------------2------4^5^4--------------------------1-----
D---------7-------------------0---------2-----------5----6--0---------2-----2-
A-----0----------------------------------------2--5----7----------------------
E-----------------------------------------------------------------------------

e------------------------------------5-5--3-1-0^1^0---7-7-7-7-8-7-5------------
h-3-3----------------------------5-5--------0-------3---------------5-5-5-5-6-5
g-------------2-2-2-2/4-4--5-5-5-----------------------------------------------
D-0-0-1/2-2-2-----------------------------0---------2-------------7------------
A---------------2--------------0----------------------------0-------------0----
E-----------------------0------------------------------------------------------

e-----------------5-5-5-5/7---
h-3---3-3-3-3/5-5-------------
g---1-------------------------
D-2-------0---2-------0-------
A-------------------------0---
E-----------------------------