В начало
АБВГДЖЗИКЛМНОПРСТУФХЦЧШЭЮЯA-Z0-9
 
Наумов Юрий - Рожден, чтоб играть
Ты и я  
В Ленинграде дождливое лето,
И я так подустал от официоза.
Но мы не поедем в Палермо с тобой,
Да, там тепло, но, ох уж эти мне мафиозо,
Что вечно не в духе.
Давай-ка останемся дома, мой бог.
 
И ты будешь сетовать на непогоду,
А я буду в праведном гневе на то,
Что мы не вольны, Жанна,
Внедриться в Китай партизанкой подпольной луны.
И мир содрогнется от звуков
Музыки желтой волны.
 
Ах, героин в Амстердаме,
М-м, снегопады в Тбилиси,
О, переворот в Иордании,
Боже, как трудно быть реалистом
Мира, в котором малюют на стенах
Нитроэмалевой краской,
И повсюду снуют пацифисты в мундирах.
Я обещаю быть откровенным,
Дай мне напялить еще одну маску.
Я докажу тебе, что я крутой, я все поставлю на карту.
Я скажу тебе, что
я сочиняю не хуже Маккартни.
 
Ты, ошалев от этакой наглости,
Вымолвишь, что у меня не все дома,
Я не сумею тебе возразить -
Я так давно не был дома.
Лучше послушай, как я играю.
Разве тебе не по кайфу ?
 
Ах, в Калифорнии - СПИД,
Токсикомания в Наро-Фоминске.
Спи, любовь моя, спи.
Господи, как тяжело быть нонконформистом.
Особенно если
Это выходит из моды.
Но по бокам как всегда два оптимиста
В штатском.
Я обещаю быть бескомпромиссным,
Дай мне примерить новый намордник.
Я обернусь к тебе ликом
Полным смиренья и счастья.
Ты с перепугу и вправду подумаешь,
Что я великий,
Но, расколов меня в одночасье,
Набросишься с криком,
Что я сумасшедший маньяк.
И мы всегда будем вместе -
Ты и я.
Я забыл где мой дом  
Между стен,
Между этих стен слышен стон.
И бетон,
Лишь один бетон
весом в тысячу тонн.
В этот каменный праздник
Я теряю свой разум.
Я забыл где мой дом.
 
Эти серые стены
похожи на кастет.
На бетонный кастет
весом в тысячу тонн.
Будто не был ни разу,
Я теряю свой разум.
Я забыл где мой дом,
Где мой дом.
 
Я забыл где мой дом,
Где мой дом.
Я забыл где мой дом,
Я забыл где мой дом,
Я забыл где мой дом,
Где мой дом.
А-а-а...
 
Я ушел чтоб уйти,
Но пришел, чтобы найти.
Я вернулся сюда не за тем,
Чтобы уйти.
Но похоже напрасно,
Я теряю свой разум.
Я забыл где мой дом,
Где мой дом.
 
Я забыл где мой дом...
А-а-а-а...
Где мой дом...
Где мой до-о-ом...
А-а-а-а...
Где мой до-о-ом...
А-а-а-а...
Я забыл где мой дом...
Я забыл где мой дом...
О-о-о...
Где мой дом?...
Та, с которой шел  
Время приходить, 
будоража сон судьбе... 
Полдень наполняет кровь, 
пусть за окном - темно... 
Ты мне завещал: "не укради", 
а я тебе - все мольбы о той, 
с кем долгий путь мой через ночь... 

Загляни в мои глаза - кто я теперь? 
Я не смог стерпеть, 
и я не сохранил обет; 
и твое растерзанное "не убей" 
скручено внутри меня петлей 
на шее той, с кем шел к тебе... 

Я грешен, но дай же допеть мне! 
я слаб, но... прости; 
и я разрублю эту петлю! 
Мне больно, и значит, 
ее еще можно спасти!.. 

Что же мне теперь, 
как мне быть с твоим "не лги"? 
Полночь на моих часах, 
а за окном день бел... 
Время уходить, время отдавать долги. 
Этой ночью я похоронил 
ту, что звала к тебе... 
Ту, что звала меня к тебе...
Возвращение блудного сына  
Мама! 
Я здесь 
Я снова дома 
Но 
Как это долго 
Господи! 
Как все это долго! 
Мама! 
Я здесь... 

Мама! 
Где Бог? 
Мы искали в небесных покровах 
Но там только боль 
Мама! Там столько крови 
Мама! Я здесь, 
Но, кроме тебя, 
Мне никто не откроет 

Мама! Я понял: 
Земля - просто место под Солнцем 
Но 
В ней больше нет соков 
Мама! 
В ней так много соли 
Мама! 
Я - здесь, 
Но слышишь ли ты мое соло?.. 

Мама! Бесповоротно - 
Все, что смогли, все попрали... 
И твой сын, как упрямый баран, 
стучится в ворота, 
Ключи от которых давно у него 
отобрали 
Мама! 
Я - здесь, 
Что бы тебе там ни врали! 

Мама! Я здесь, 
Где же еще мне взять силы? 
Возвращение блудного сына 
Возвращение блудного сына 
Мама! Я - здесь, я здесь!... 

И во мне нет стыда за прожженный 
окурками вечер, 
Как в вас нет стыда за прошитую 
пулями веру, 
Как в Нем нет стыда за эту 
прожитую вечность... 
Все кончено, 
Поскольку конечно 
Все, кроме бегства 
По следам уходящего лета, 
Бега 
По ладам уходящего блюза... 
Снова нервы, 
И снова как плети, 
И в который раз вены, 
И опять, как открытые шлюзы... 

Мама! 
Я - здесь 
Я снова дома 
Но 
Как это долго 
Господи! 
Как все это долго! 
Мама! 
Я здесь... 
Я - снова дома!
Рожден чтоб играть    
 Em7   A                   Em7
Мама,     нет гарантий от ран
 Am                    Em
Мама, заступившим за грань
 Hm        Am7
Мама, я о тех, кто рожден,
        Em    H7
Чтоб играть

Мама, я искал свой причал 
Мама, я отчалил от тех, кто молчал 
Если я сжег мосты, то прости, - 
Это я сгоряча... 

Мама, поколенью душевных калек 
Мама, по колено моря сонных лет 
Мама, я о тех, кто сидит на игле 
Столько лет... 

Мама, правота неимущих права 
Они голые, мама, 
Но у них на плечах голова 
Мама, я от тех, кто не верит в слова... 

Мама, жизнь - сквозь проходные дворы 
Мы бежим, позабыв,что под нами обрыв 
Я рожден, чтоб играть, 
Кто поставил меня вне игры, мама? 

Мама, для меня свет не свят 
Моя жизнь - это звук, 
что на тысячи ватт 
Мама, разве я виноват? 

(*) Почему там тепло, а у нас холода? 
    Почему там Клондайк, а у нас - Кулунда? 
    О, мама... 
    Почему меня тянет туда? 

Против нас нынче вся королевская рать 
Мама, чтобы выжить, 
я вынужден врать 
Что поделаешь, мама, 
ведь я не хочу умирать, 

У меня нет теперь никаких 
гарантий от ран 
Слишком поздно, мама, 
Я уже - заступивший за грань 
Но, мама, я рожден для того, 
чтоб играть!..

(*) - на альбоме не поется
Азиатская месса  
Мама,
Монотонный ритм
это где-то там,
это где-то там...
Слышишь,
Бьют тамтамы Рима
Гонят по пятам,
Годы по пятам
Манна...-
это адский ветер,
Азиатский ветер
Носит в миражах
Мама,
Если мне не светит,
Есть ли мне на свете
Место, чтоб бежать?

Солнце, восстав на Востоке,
Западу выйдет боком
Бойня во славу Аллаха -
Главы на плаху... С Богом!

Мама,
Я не у дел
Жил - не знал,
Что есть предел...
Но, мама!
Я на пределе!
Он меня переделал:
Звездами выстлав глаза,
Сыпал под ноги гвозди
О, леденящее счастье -
Вдыхать этот воздух,
Стоя на крае...

Солнце, споткнувшись о запад,
Вновь захромает
С востока
Свет на мгновенье мелькнет,
Полоснув по глазам
током
Снова
Вернется к истокам,
Мама,
Нам оставя до срока,
Мама!
Непроглядную темень!
Я иду вслед за теми,
Кто без раскаянья, пробуя рвать свои цепи,
В испепеляющем кейфе срывался у цели,
Будучи пойман в прицеле...

Опий...
Соляные копи
Кровь по капле копят
Это где-то здесь...
В топи,
Может быть, в Европе
Будет слышен вопль
Шедшего в узде
Но, мама,
Так было везде
Мама,
Так будет везде??!!

Мама, (nowhere)
Нет места для бегства
Мама, (no way)
Нет средства для мести
Я только мог вырвать звук
Из месива будущих бедствий -
Азиатская месса...

Но мы уйдем за предел повсеместно и вместе
Мы уйдем за предел повсеместно и вместе
Уйдем за предел повсеместно и вместе
За предел - вместе...

Но, мама!
Что же мне делать? -
Мне не стронуться с места!
О, мама, nowhere
О, мама, no way
Мама... nowhere, no way...

Азиатская месса...
Азиатская месса...
Азиатская месса...
Этой ночью    
E||------------3--3----3--3-3-3-3-|--0h2-2----------0--------| 
C||------------0--0----0--0-0-0-0-|--0-0-0----------0--------| 
A||------------0--0----0--0-0-0-0-|--0-0-0----------0--------| 
C||------0h4---4--4----4--4-4-4-4-|--0-0-0----------0--------| 
A||-------------------------------|------0----------0--------| 
D||-------------------------------|------0-------------------| 

                                     Am (no5) 
----------------------------------|----------------------------------| 
----------------------------------|--------0---------------0---------| 
--------0-------0-------0-------0-|----0-------0---0---0-------0---0-| 
----9-9-----9-9-----9-9-----9-9---|------9-------9-------9-------9---| 
--0-------0-------0-------0-------|--0-------0-------0-------0-------| 
----------------------------------|----------------------------------| 

  Amadd9                             Am (no5) 
----------------------------------|----------------------------------| 
--------0---------------0---------|--------0---------------0---------| 
----0-------0---0---0-------0---0-|----0-------0---0---0-------0---0-| 
------7-------7-------7-------7---|------9-------9-------9-------9---| 
--0-------0-------0-------0-------|--0-------0-------0-------0-------| 
----------------------------------|----------------------------------| 

  Amadd9 (no5)                           Am 
--------------------------------------|----------------------------------| 
---------0-----------------0----------|--------0---------------0---------| 
----0--------0----0---0--------0----0-|----7-------7---7---7-------7---7-| 
------11-------11-------11-------11---|------9-------9-------9-------9---| 
--0--------0--------0--------0--------|--0-------0-------0-------0-------| 
--------------------------------------|----------------------------------| 

  Am/5+                              Am7 (no5) (2) 
----------------------------------|----------------------------------------|
--------0---------------0---------|---------0------------------0-----------|
----8-------8---8---8-------8---8-|----10-------10---10---10-------10---10-|
------9-------9-------9-------9---|-------9--------9---------9--------9----|
--0-------0-------0-------0-------|--0--------0---------0--------0---------|
----------------------------------|----------------------------------------|
  
------------------------7---------|--------8---------------7---------| 
--------0-------------------------|----------------------------------| 
----8-------8---8---8-------8---8-|----8-------8---8---8-------8---8-| 
------9-------9-------9-------9---|------9-------9-------9-------9---| 
----------------------------------|----------------------------------| 
--0-------0-------0-------0-------|--0-------0-------0-------0-------| 
  
------------------------0---------|----------------0-----------------| 
--------0-------------------------|--------0---------------0---------| 
----0-------0---0---0-------0---0-|----0-------0-------0-------0---0-| 
------9-------9-------9-------9---|------7-------7-------7-------7---| 
--0-------0-------0-------0-------|--0-------0-------0-------0-------| 
----------------------------------|----------------------------------| 
  
------------------------0---------|----------------0-----------------| 
--------0-------------------------|--------0---------------0---------| 
----0-------0---0---0-------0---0-|----0-------0-------0-------0---0-| 
------6-------6-------6-------6---|------5-------5-------5-------5---| 
--0-------0-------0-------0-------|--0-------0-------0-------0-------| 
----------------------------------|----------------------------------| 
  
----------------------------------|----------------------------------| 
--------0---------------0---------|--------0---------------0---------| 
----0-------0---0---0-------0---0-|----0-------0---0---0-------0---0-| 
------4-------4-------5-------5---|------6-------6-------7-------7---| 
--0-------0-------0-------0-------|--0-------0-------0-------0-------| 
----------------------------------|----------------------------------| 
  
----------------5-----------------|--------5---------------1---------| 
--------0---------------0---------|----------------------------------| 
----0-------0-------0-------0---0-|----0-------0-------0-------0---0-| 
------6-------6-------6-------6---|------0---------------0-------0---| 
----------------------------------|----------0---------------0-------| 
--0-------0-------0-------0-------|--3-----------3-2-0---------------| 
  
----------------------------------|----------------------------------| 
--------0---------------0---------|--------0---------------0---------| 
----0-------0---0---0-------0---0-|----0-------0---0---0-------0---0-| 
------9-------9-------7-------7---|------6-------6-------5-------5---| 
--0-------0-------0-------0-------|--0-------0-------0-------0-------| 
----------------------------------|----------------------------------| 
  
------------------------0---------|------------------------0---------| 
--------0-------------------------|--------0-------------------------| 
----0-------0---0---0-------0---0-|----0-------0---0---0-------0---0-| 
------4-------4-------5-------5---|------6-------6-------5-------5---| 
--0-------0-------0-------0-------|--0-------0-------0-------0-------| 
----------------------------------|----------------------------------| 
  
----------------------------------|----------------------------------| 
--------0---------------0---------|--------0---------------0---------| 
----0-------0---0---0-------0---0-|----0-------0---0---0-------0---0-| 
------9-------9-------7-------7---|------6-------6-------5-------5---| 
--0-------0-------0-------0-------|--0-------0-------0-------0-------| 
----------------------------------|----------------------------------| 
  
------------------------0---------|------------------------0---------| 
--------0-------------------------|--------0-------------------------| 
----0-------0---0---0-------0---0-|----0-------0---0---0-------0---0-| 
------4-------4-------5-------5---|------6-------6-------7-------7---| 
--0-------0-------0-------0-------|--0-------0-------0-------0-------| 
----------------------------------|----------------------------------| 
  
------------------------5---------|--------0-------5-------0---------| 
--------0-------------------------|----------------------------------| 
----0-------0---0---0-------0---0-|----0-------0-------0-------0---0-| 
------6-------6-------6-------6---|------6-------6-------6-------6---| 
----------------------------------|--------------------------0-------| 
--0-------0-------0-------0-------|--0-------0-------0---------------| 
  
--------5---------------1---------|------------------------0---------| 
----------------------------------|--------0-------------------------| 
----0-------0-------0-------0---0-|----0-------0---0---0-------0---0-| 
------0---------------0-------0---|------4-------4-------5-------5---| 
----------0---------------0-------|--0-------0-------0-------0-------| 
--3-----------3-2-0---------------|----------------------------------| 
  
------------------------0---------|------------------------0---------| 
--------0-------------------------|--------0-------------------------| 
----0-------0---0---0-------0---0-|----0-------0---0---0-------0---0-| 
------6-------6-------5-------5---|------4-------4-------5-------5---| 
--0-------0-------0-------0-------|--0-------0-------0-------0-------| 
----------------------------------|----------------------------------| 
  
------------------------0---------|--------0-------5-------0---------| 
--------0-------------------------|----------------------------------| 
----0-------0---0---0-------0---0-|----0-------0-------0-------0---0-| 
------6-------6-------7-------7---|------6-------6-------6-------6---| 
--0-------0-------0-------0-------|--------------------------0-------| 
----------------------------------|--0-------0-------0---------------| 
  
--------5---------------1---------||-------------------------0---------|
----------------------------------||---------0-------------------------|
----0-------0-------0-------0---0-||*----0-------0---0---0-------0---0-|
------0---------------0-------0---||*------9-------9-------9-------9---|
----------0---------------0-------||---0-------0-------0-------0-------|
--3-----------3-2-0---------------||-----------------------------------|
  
----------------0-----------------|------------------------0---------| 
--------0---------------0---------|--------0-------------------------| 
----0-------0-------0-------0---0-|----0-------0---0---0-------0---0-| 
------7-------7-------7-------7---|------6-------6-------6-------6---| 
--0-------0-------0-------0-------|--0-------0-------0-------0-------| 
----------------------------------|----------------------------------| 
 
-----------------------------------|| 
--------0---------------0----------|| 
----0-------0---0---0-------0---0-*|| 
------5-------5-------5-------5---*|| 
-----------------------------------||
--0-------0-------0-------0--------||
Звездная ночь    
  A              Hm               F#m
В звездное небо плачь, маленький плут,
 A                    E               Hm
Мальчик, бежавший от матери в темную ночь
  D(II)               F#m                 A      E
Плачь оттого, что теперь ты свободен от пут,
  D                  C#m                 F#m     E
Плачь оттого, что вряд ли кто сможет помочь

Был на цепи,
Но зато ты был ими любим
Вера в себя
Силней, чем эта любовь
Ты не растоптан,
Но ты остался один
Выход наверх -
Всегда через боль.

Звездная ночь -
Это мать твоих снов
Примет она лишь одна,
Пусть холодна.
День - недостойный отец
От неправды бегущих сынов
В жизни, стоящей вверх дном...
...попытайся добраться до дна...
Ночной полет (I)  
Это так легко - быть закрытым, 
это так легко - оправдаться в том, 
что земная слякоть 
век ото дня забирает в плен. 
Если б у меня были крылья, 
я б тогда на время покинул дом, 
я бы снял проклятье, 
я бы поднял эту землю с колен... 

Можешь не искать смысл в моих словах - 
слово есть ложь, раз тебе так удобней, но 
попробуй найти 
смысл в том, что я не молчу. 
Тысячи детей Земли шли в сторону рва, 
И я - им подобный, но 
все же помолись 
в ночь, когда я взлечу. 

Я хочу попробовать сбыться; 
верь мне - я не хочу наследить, 
но пойми: я не хочу уйти без следа.... 
Быть самоубийцей 
наверное легче, чем победить, 
но пойми: еще легче - предать... 

Да, я воистину слаб! 
Слабей, чем они и слабее чем ты, 
но зато я острее всех вас 
ощутил, каково быть открытым!.. 
Та волна, что сюда занесла 
мою книгу, в которой 
одни лишь пустые листы 
в эту ночь подарила мне крылья! 
В эту ночь подарила мне крылья...
Ночной полет (II)  
Город спит, 
в стены впитав снежный зной, 
и он не видит, как лунный челнок 
поднимается по небу, стар и убог... 
Как полоумная ночь 
виснет на кончиках спиц 
в руках уснувшего бога, 
как вьюга глумится над болью земной... 

Шаг из окна... 
Жажда весны больше сна; 
и я взлетел над ледовым безумьем, 
над нервным сплетением 
каменных тел. 
Господи, если б я знал, 
что там творится внизу... 
Господи, если б я знал, 
что мой город 
так голоден, болен и наг... 

Я так хотел, но, знать, 
не судьба мне разбиться о камни... 
Холода голого ход оголделый 
не остановить. 
Ночь подошла на закате, 
чтоб обернуть этот мир 
фиолетовой тканью... 

Но, Господи, что я могу? 
Разве я в силах согреть? 
Я перервал оболочки, 
я жгу свои крылья, и пепел - на дне... 
Должен ли я умереть?.. 
Стоя на том берегу, 
видел ли ты этой ночью, 
как небо металось в огне? 

Нет, я не хотел!.. 
Но видно, судьба мне сгореть - 
так скорей! 
Жар поражающий 
завтра пожрет нас пожаром до тла; 
смерть к нам придет на заре 
сделать последний разрез... 

здесь -- в песне подстреленных птиц... 
И на расвете отпетая 
клекотом хриплым 
ударит из горла весна... 
Наша последняя ночь 
свалится с кончиков спиц, 
сметая звезды с пути 
золотой колесницы, 
на все времена сжигающей нас...
Бэйби-блюз  
В ночь перед похмельем,
Будто бы в Содоме
Когда все воды мира станут
Адским зельем
И небосвод провалится сквозь землю
Я, упавший с неба,
Будучи бездомным,
Пойду неведомо куда,
Мосты сжигая за собой
Во тьме бездонной
Пойду заведомо туда,
Откуда просто некуда вернуться
Я плачу,
Я обнажен...
Ночь спьяну в сердце бьет ножом,
И мне - не увернуться...

Это нелегко -
Быть все время налегке
А мне бы -
Мне по судьбе бы быть с тобой
Небо!
Разве у меня нет права на любовь?
Ты - в моем сердце,
Но в этот пьяный полуночный блюз
Будь у меня на языке
Ooh, babe!
Я плачу,
Я плачу,
Но завтра будет новый день
И мы с тобой, и все - иначе...

Это нелегко -
В суете за счастьем
Я каждый час ловлю себя на том,
Что собираюсь слишко далеко
И каждый миг на том,
Что слишком тщательно высчитываю шансы
Я не плебей,
Я не плейбой,
Мне по судьбе бы быть с тобой...
Идти к тебе
Всю эту ночь,
Сквозь эту быль,
Сквозь эту боль,
Сквозь эту боль, babe!..

Это нелегко,
Не хватает духу,
Всегда есть кто-то,
Кто играет нашим страхом,
Всегда есть кто-то,
Кто вскрывает наши
Ненаписанные письма
Ты спи с ним,
Ты спи с ним,
И пусть вам будет пухом
Весь этот прах,
Весь этот прах...

Я уже не тот,
Чтоб идти наперекор
Небо!
Разве у меня нет права на покой?
Мама!
Разве у меня нет права
Умереть красивым стариком?
Я плачу,
Я плачу
Наверно, все могло бы быть иначе
Наверно, все могло бы быть иначе, babe
Все могло бы быть иначе, babe!...

С головною болью
Мир вернется на круги своя,
А мне отныне будет некуда вернуться
И замахнется новый день,
Но я дам сдачи,
Я успею увернуться
И не заплачу -
Наверно, что-то умерло внутри
А разве, разве может быть иначе?

Убей, боль!
Убей, быль!...
Мне никогда не быть с тобою, babe
Ooh, babe...
Сказка о Карле  
Карл был добрым парнем, 
и сердцем чист. 
Карл был музыкант, Карл был 
кларнетист. 
Вдохом воздуха, выдохом звука 
Жил и шел с нараспашку душой. 
И если в племени мало пламени, 
Карл был из немногих, кто пламенный. 
Он любил свое дело и делал, веря 
В то, что от этого всем хорошо. 

Карл любил Клару, а Клара - краля. 
Глаза как алмазы, губки - кораллы. 
Сама так естественна, так натуральна, 
Что с нею мораль забываешь на нет. 
Но не страдала моралью Клара, 
Стерильной душою Карла играла. 
И как-то под утро паскудная девка 
Украла у Карла кларнет. 

Сонный Карл спросонок 
глядел в свой лорнет, 
Тщась отыскать то, чего уже нет. 
Осознав значенье утраты 
Карл вскричал: "Караул!"- 
Но на нет суда нет. 
И заплаканный Карл 
шастал в ватерклозет, 
Не читал от несчастья 
вечерних газет, 
Все курил и корил, 
сам с собой говорил, 
И чуть было не оказался в крейзе... 

Если душно душе, 
если тошно - то что ж, 
На руках есть вены, под руками нож... 
Но это выход на случай, 
если выхода нет, 
А что выхода нет - это ложь. 
Если небом дан дар, 
хватит сил и на то, 
чтоб и этот удар, 
и еще черт-те что 
Пережить, и воду святую, 
которой ты полон, 
донести, тем кто жаждет, 
кто ею пустой. 

Карл рискнул пойти на эксперимент, 
Карл нашел в себе силы 
сменить инструмент: 
влез в долги и купил "Стратокастер" - 
гитару, 
о которой, пожалуй, мечтает любой. 
Он терзал свои пальцы, душу и мозг 
Дни и ночи, но он иначе не мог, 
И в итоге родил звук, в котором он 
выместил всю свою боль и любовь. 

Он трясину потряс, 
Тем что грязь втоптал в грязь. 
Он угрюмых смешил, 
а погрязшим - мешал. 
Взбаламутив тьму мути, он на свет 
Божий из-под ветоши вытащил свет. 
Рок-н-ролльная каста 
расступилась пред ним, 
И фанатики клялись, что видели нимб 
Над его головой, но дело не в нимбе: 
Он был просто несущим 
насущный ответ. 

Сквозь сплетение сплетен, 
сквозь тину и тень, 
День за днем, каждый день, 
за ступенью ступень, 
Карл всходил на престол 
не ценой преступлений, 
Не ради богатства, дарящего лень. 
И хотя Карл вне сцены 
был скромен как кролик, 
В кулуарах его прозвали "Король", 
Что с того, сто он не коронован, 
Коль король рок-н-ролла - 
коронная роль ? 

Но жил скрытный, корыстный 
проныра Кастрат, - 
музыкант не удавшийся, 
он во сто крат 
заколачивал больше, 
чем мастера, 
чему был, разумеется, рад. 
Он служил тем, кто лжив, 
он следил тут и там, 
он ходил по пятам, 
он сидел по кустам, 
он жил стуком ритмичным и сколотил 
остояние на костях. 

"Стратокастера" звуков 
услышав раскат, 
к Карлу завистью черной 
проникся Кастрат 
И под старость Кастрату 
втемяшилась страсть: 
Он решил "Стратокастер" украсть. 
Но чужими руками он жар загребал, 
от чего и ломились его погреба. 
он решил нанять бьющих и грабящих, - 
тех у кого только брага 
и брань на губах. 

И Кастрат недолго бродил по дну, 
чтоб найти подонков 
и сказать им: "Ну !" - 
В тот же вечер окрыленного Карла 
поджидала у дома урла. 
Его долго пинали ногами в живот, 
и если он чудом остался живой, 
то виной тому Бог... 
Карл поверил в Него. 
Вот такие дела. 

А Кастрат "Стратокастер"-то 
спер неспроста: 
он пытался мелодии 
стричь как с куста. 
Думал, дело пустяк, 
но он локти кусал, - 
Ведь душа у Кастрата пуста. 
Сбившись с сил и сбесившись, 
он струны сменил, 
но гитара просто трунила над ним, 
и запал вдруг пропал, 
он запил и, вспылив, 
он решил "Стратокастер" спалить. 

И когда "Стратокастер" 
несли на костер, 
Карл на костылях 
тащился в костел... 
Его приняли там, усадили за стол, 
предложили постель... 
И уставший от мира 
принял новый устав, 
что заставил его 
стать тем, кем он стал, 
и теперь тонких струн 
звенящая сталь 
Уже пальцы не жалит, а жаль... 

Все на нуль одним махом - 
теперь он монах, 
он махнул на все и всех послал на х... 
он не ходит теперь 
в полинявших штанах, 
пребывая в священных стенах. 
Вот только хор поет мессы а-ля 
до-ля-фа-соль, 
сыпля в Карловы раны 
карловарскую соль. 
Карл чувствует боль, 
вот вся сказка о том, 
как стал карликом бывший король. 

А я был странник 
в израненной странной стране, 
где продажное "ДА" 
и на нет сводят "НЕТ", 
где на тысячу спящих 
один, что распят 
и пятьсот, что плетутся вдоль стен. 
Если ты не эстет в ожиданьи конца, - 
лей кастет из свинца 
и налей-ка винца, 
и мы выпьем с тобою 
за тех, кто прибит на кресте.
Театр Станиславского  
Первый акт - 
занавес во всю ширь. 
Не трогать ружье на стене - 
Оно пригодится попозже. 
Маленький, всеми проклятый гений, 
Капля всемирной души, 
Идет в этот мир из глуши - 
Кинуть в него свои дрожжи. 
Залы веселых столиц 
Примут не сразу, но наверняка. 
Вот путь от дурацких "зачем?" 
до страшных "почем?", 
Как только войдешь в эти двери. 
Театр начинается с виселиц, 
Не потеряй номерка... 
Здесь так трудно выжить, 
не став самому палачом, 
Но в это не хочется верить... 
- 
Да сохрани тебя Небо, 
Хотя бы в единственный раз! 
Странная небыль, 
В которую, дай Бог, поверить 
Кому-нибудь из нас... 
- 
Я прошел мимо умных 
и правильных книг - 
Неприметный солдат рок-н-ролла, 
Не помышляющий стать офицером. 
Сексуальные революционеры... - 
Куда мне до них, 
Героически павших на баррикадах 
Вендиспансеров? 
Но я тоже не свят, 
я жаждал любви 
Да и прочих безумных вещей, 
Зашвырнув в дальний угол талмуд 
С главой про тычинку и пестик. 
Через несколько лет 
вы услышите хрип 
И хруст поврежденных хрящей - 
Это я в первый раз наступлю 
На горло собственной песне. 
- 
Храни меня, небо, 
Пока я в терновых венках. 
Корка черного хлеба 
И целая вечность 
до третьего звонка. 
- 
Акт второй - 
пора становиться большим. 
Время разбрасывать камни 
в огороды собратьев, 
Голосу времени вторя. 
Я занялся всерьез 
Покореньем каких-то вершин, 
Не заметив, что уровень неба 
постепенно спускается 
Ниже уровня моря. 
Я стал в доску своим 
Среди в стельку чужих, 
Разменяв идеалы, 
Что в юности вынес со стрита. 
И столкнувшись с язвой желудка, 
Как с одним из путей 
спасенья души. 
Я решил отсидеться в тиши 
И отделаться легким гастритом. 
- 
Хорони меня, небо, 
Я в лавровых венках. 
Что за чертова небыль? 
Еще двести грамм коньяка 
До третьего звонка. 
- 
Третий акт - 
надвигается эра реформ. 
Сними же ружье со стены, 
Передерни затвор, ну и так далее... 
Смерть совершенна 
среди готовых лекарственных форм. 
Что уж там - лечит горбы, 
Не говоря о воспаленьи миндалин. 
Напиши на рецепте 
"Прием раз в жизни, перед сном, натощак", 
И она не замедлит прийти 
Бескомпромиссная, 
точно очковая кобра. 
Жизнь, о Боже, 
как трудно вымолвить слово "прощай" 
Соленое море в глазах навеки 
размоет твой 
Всепобеждающий образ. 
- 
Возьми меня небо 
Из похоронных венков. 
Окуни меня в небыль 
вечно звучащей симфонии 
Третьих звонков! 
- 
Да хранит тебя Небо, 
В стотысячный раз. 
Светлая небыль, 
В которую истинно верят 
Лучшие из нас.