В начало
АБВГДЖЗИКЛМНОПРСТУФХЦЧШЭЮЯA-Z0-9
 
Сборники, саундтреки, сказки, прочее... - Первый ленинградский рок-фестиваль
О любви  
Молодой механизатор МТС
Тёмной ночью в общежитие залез.
Заглянул привычно в комнату девчат,
Там доярки отдыхали дружно в ряд.

Добрый молодец  - мужчина хоть куда,
Он не мог от одиночества страдать.
Целый день он в поле пашит, боронит,
А ночами никогда один не спит.

В этом нет большой беды.
В этом нет большой беды.
В этом нет большой беды.

Тихо дремлет Агрофена у окна.
Больше всех ему понравилась она.
Он в мечтах её любил уже не раз,
И собрался на яву любить сейчас.

В этом нет большой беды.
В этом нет большой беды.
В этом нет большой беды.

Только руку протянул он, в тот же миг
Наша Груня подняла истошный крик.
Кто-то с улицы дружинника привёл
И составили на парня протокол.

Вот когда пришла беда.
Вот когда пришла беда.
Вот когда пришла беда.

Молодой механизатор МТС
Скоро год уж как исправно валит лес.
О любви не помышляет, не поёт,
И ничуть не хуже нашего живёт.

Вот и кончен мой рассказ.
Вот и кончен мой рассказ.
Вот и кончен мой рассказ.
Про Макара  
Я вижу дом,
А в доме том не гаснет свет,
В окне маячит
Твой кудрявый силуэт.

Твой дом открыт
И в нем накрыт бескрайний стол,
Но кончен бал
И твой последний друг ушел.

Окончен бал
И ты упал лицом в салат,
А за окном
Привычно вянет листопад.

Ты будешь прав
Себе возздав хвалу и честь
В любом паденьи
Доля взлета все же есть.

Ты много лет искал ответ
На свой вопрос,
Но до сих пор
Ответа так и не нашлось.

Вот ты один и цепь причин
Тебе ясна,
И вслед за музыкой
Приходит тишина.

И ты привык к тому
Что сник твой парус в штиль
И кораблю на смену
Встал автомобиль.

Ты все же зря свои моря
Сменял на пруд,
Где неплохие караси
Под час клюют.

И ты достиг того, чего хотел!
Река  
Знал я с детства берега большой реки,
Мог часами из воды не вылезать,
Мы с друзьями заплывали за буйки,
Чтобы силу и отвагу показать.
Нас ловили и ругали как могли,
Призывали далеко не заплывать.
Мы, конечно, обещали не шалить,
Но наутро повторялось все опять.
         Для каждого из нас течет своя река,
         И можно без труда предположить,
         Что каждый человек рискнет наверняка
         Хотя бы только в жизни раз ту реку переплыть.
Вот однажды нас поймали в сотый раз,
Но напрасно продолжали мы шутить,
Злой крапивой угостили не скупясь
Всю ватагу, перед тем, как отпустить.
Это средство безусловно помогло:
Мы привыкли возле берега нырять.
Даже нынче, приезжая в то село,
Я стараюсь за буйки не заплывать.
Будет время, я вернусь к своей реке,
Чтобы вспомнить то, каким тогда я был,
Как мальчишкой строил замки на песке
И однажды эту реку переплыл.
Когда я знал    
Проигрыш (повторяется):
---------------
---------------
---------------
---------------
--2-4-2-5-4-2--
--0-0-0-0-0-0--

Когда-то ты жила рядом со мной, и я был вхож в твой дом                       E- Em - C7 - H7 - Em - E
Я часто видел себя в твоих зеркалах, я любил играть с твоим котом             E- Em - C7 - H7 - Em - E
Но время текло слишком быстрой рекой - ты не стала женой, я не стал звездой,  G - F#m - C7
Но я часто вспоминаю те времена, когда я знал тебя совсем другой              E - Em - C7 - E
                                                                              E - E6 - E7 - E6 - E - E6 - E
Ты верила в то, во что верить нельзя, но ты знаешь - тебе это шло
Ты видела свет, ты писала стихи - скажи, куда все это ушло?
Теперь ты стала совсем чужой, но твое число - девять, твой цвет - голубой,
Я помню все это с тех самых пор, когда я знал тебя совсем другой
Ты помнишь, мы с тобой говорили о снах, теперь ты говоришь о деньгах
Твой рот стал жестче, руки - смелей, но свет потух в твоих глазах
Тебе нужна передышка, нужен покой, но на это наплевать тому, кто рядом с тобой
Он очень мил, но он не знает о том, что когда-то ты была совсем другой
Он приносит бутылки в гитарном чехле, он очень доволен собой  
И вы проводите день в обсужденье того, кто стоит за чьей спиной
И вы проводите ночь в ожидании дня - день придет и уйдет, не оставив следа
Я смотрю на вас - и вспоминаю о том, что я когда-то знал тебя совсем другой
Я посижу рядом с вами, я послушаю джаз и даже поддержу разговор               [E - E6 - A - A6]- С7 - H7 Em - E
И когда, наконец, я захочу курить, ты прогонишь меня в коридор
И когда соседи застучат за стеной, я посмотрю на часы, я пойду домой,
И дома я увижу сон о тех временах, когда я знал тебя совсем другой

[   ] - играть в басу (6-5 и 5-4 струны)
Белая ночь    
F                            G# F
Сегодня был самый длинный день, 
     F                                G# F
Мне нечем дышать, и духота давит грудь. 
F                          G# F
Сегодня самая короткая ночь, 
F                                  G#
Я хочу спать, но мне мешает заснуть 
C#        D#          F G# F
Белая ночь, белое тепло...

Фонари не горят, и мосты разведены, 
На улицах поют про новый поворот. 
И я мечусь в постели - простыни в поту, 
Мне нужен, февраль, холод, стужа и лед, 
Но здесь лишь белая ночь, белое тепло...

     F
Мне нужен февраль, мне нужна она. 
B
Нам было тепло зимой. 
    F
Я знаю, сделал что-то не так,
   B
И вот я один, совсем один, со мной лишь
C#           D#       F G# F
Белая ночь, белое тепло...

F
Она сказала "Нет, никогда!",
B
Но я услышал "Да, навсегда".
   F
Я до сих пор помню ее слова:
  B
"Да, да, да, навсегда",
   F
Я мог бы быть вместе с ней всегда...
C#           D#       F G# F
Белая ночь, белое тепло...
Горький ангел    
Am
Ночь нежна, свет свечей
   Dm
Качает отражения стен.
Am
Диско грохочет у меня в ушах,
     Dm
Но мне не грозит этот плен.
    C                G
Я ставлю другую пластинку
        Am
И подливаю себе вино.
C                   G
В соседней комнате Верочка с Веней -
  Am
Они ушли туда уже давно.
       G              F
И я печально улыбаюсь их любви
           Am             F
Такой простой и такой земной.
       G                  F
И в который раз призрак Сладкой N
E
Встает передо мной.

Когда-то мы были вместе,
Я вижу словно сквозь стекло,
Мы были ближе многих других.
Увы, это время прошло.
И все сроки окончились в срок
И каждый сыграл свою роль.
И я уже не говорю о разбитых сердцах,
Но я запомнил боль.
И вот я здесь, и я еще жив,
Но я живу как во сне.
И лишь виденье Сладкой N -
Это все что осталось мне.

Я знал других, но её лицо
Я видел в своем лице.
Я знал всё, что нас ждёт в начале,
Но кто мог знать, что нас ждёт в конце?
И я летел так высоко, что сжег свои крыла.
И, падая вниз, я услышал звон - 
Она сказала: "Это колокола".
Я гляжу туда, где секунду назад
Еще стояла стена:
Мой странный гость - тень Сладкой N -
Смотрит сквозь огонь на меня.

Я видел горы, и я видел моря,
Я был во многих городах.
Мне кажется, я знаю, что такое любовь,
Я знаю, что такое - страх.
И слишком часто мне делали больно,
Я до сих пор не знаю за что,
Наверное, счастлив может быть только тот
Кому не нужен никто.
Я одиноко курю, пуская кольцами дым,
Я уже не жду перемен.
Со мной остался только горький ангел -
Призрак моей Сладкой N!
Прощай, детка    
Проигрыш: 
A (2 раза)      D       Dm      A       F#      Hm
|-----------------2-0-|-2-2-2-2-2-2-1-1-1-1-1-1-|-----------------|---------------|
|-------0-1-2---------|-------------------------|-----0-1-2-------|---------------|
|---2-2-------2-2-----|-------------------------|-2-2-------------|---------------|
|---------------------|-------------------------|-----------4-4-4-|-4-6-4-7-6-4-2-|
|---------------------|-------------------------|-----------------|---------------|
|---------------------|-------------------------|-----------------|---------------|
E       A       Esus - E
|---------------------|-----------------|-----------------------------------------|
|---------------------|-----------------|-----------------------------------------|
|---------------------|-----------------|-----------------------------------------|
|---2-4-6-4-2---------|---------2-2-4-2-|-2-2-2-----------------------------------|
|-------------4-0-0-2-|-0-0-4-4---------|-4-4-2-----------------------------------|
|---------------------|-----------------|-0-0-0-----------------------------------|

Прощай, детка! Детка, прощай                    A
И на прощанье я налью тебе чай,                 A
Я позвоню по телефону, закажу тебе авто,        D - Dm
И провожу до двери, и подам тебе пальто,        A - F#
И поцелую невзначай,                            Hm
И прошепчу: "А-а-ах: Прощай, детка, прощай!"    E - A - Esus - E
Ты так очаровательна и не скучна ничуть,
Но мы устали друг от друга, нам нужно отдохнуть
Накрась поярче губки и подведи глаза,
Надень мой старый макинтош, ведь может быть гроза 
Живи же хорошо, не скучай,
Ну, а пока - прощай, детка, прощай!
(Проигрыш - этот я обленился снять)
Мы докурили сигареты и допили все вино,
И поняли, что наше время кончилось давно,
Но нам же было так чудесно, нам было так легко, 
Кто знает, может быть нам захочется еще,
Так вот мой номер телефона - звони, не забывай,
Ну а пока - прощай детка, прощай!
Я спел тебе все песни, которые я знал,
И вот пою последнюю, про то, что кончен бал,
Про то, что одному быть плохо, что лучше быть вдвоем,
Но я разбит и слаб, и я мечтаю об одном
О чем? Попробуй угадай
О, ты права! Чтоб ты сказала мне "Прощай, детка, прощай!" (конец - A)
Мажорный рок-н-ролл    
E                          E
Я посмотрел на часы - было 8:01
E                       E         E      E
Мы танцевали, вместе с нами танцевала луна

         A                        E
[REF.]: [Рок-н-рол танцуют все кругом,
             H(7)                  A
         Мы прыгали, вертелись и кружились так,
              E               H(7)
         Что пол ходил ходуном.]


Я посмотрел на часы - было восемь двадцать два.
У меня начала кружиться голова.
Рок-н-ролл танцуют все кругом.
Мы прыгали, крутились и вертелись так, что пол ходил ходуном!

Я посмотрел на часы - было восемь сорок три.
Твои бусы порвались. Скорее собери!
Рок-н-ролл танцуют все кругом.
Мы прыгали, крутились и вертелись так, что пол ходил ходуном!

Я посмотрел на часы - было девять ноль четыре.
Я устал так, будто весь день жал гири.
Рок-н-ролл танцуют все кругом.
Мы прыгали, крутились и вертелись так, что пол ходил ходуном!

Я посмотрел на часы - было девять тридцать шесть.
Ты сказала: "Я устала, я хочу присесть! "
Я сказал: "Нет, нет! Смотри - танцуют все кругом! "
Мы прыгали, крутились и вертелись так, что пол ходил ходуном!

Я посмотрел на часы - было десять ноль семь.
Тебе уже восемнадцать, мне всего тридцать семь!
Рок-н-ролл танцуют все кругом.
Мы прыгали, крутились и вертелись так, что пол ходил ходуном!

Я посмотрел на часы - было десять сорок восемь.
Оркестр устал, но мы снова просим:
Рок-н-ролл! Танцуют все кругом.
Мы прыгали, крутились и вертелись так, что пол ходил ходуном!

Я посмотрел на часы - одиннадцать ноль пять.
Завтра мы будем танцевать опять
Рок-н-ролл. Танцуют все кругом.
Мы прыгали, крутились и вертелись так, что пол ходил ходуном!
Вариант 2    
; Tabs by Lev Levitin (lev@mccme.ru)
; with little help of Ivan Medvedev (medvedev@com2com.ru)

INTRO:

e|------------------7--9-|12-12-12-12-12-12-12-12|12-10------------------|
b|---------------9-------|12-12-12-12-12-12-12-12|12----12-11-10---------|
g|-----------------------|-----------------------|---------------12-9----|
d|-----------------------|-----------------------|---------------------12|
a|-----------------------|-----------------------|-----------------------|
e|-----------------------|-----------------------|-----------------------|


e|-----------------------|-----------------------|-----------------------|
b|-----------------------|12-12-12-12----12------|------10-------10------|
g|12----9--12----9--12---|-----------------------|8--9-----8--9-----8--9-|
d|-----------------------|-----------------------|-----------------------|
a|-----------------------|-----------------------|-----------------------|
e|-----------------------|-----------------------|-----------------------|


e|-----------------------|-----------------------|-----------------------|
b|10-------10-------10---|9--------9-------------|9--------9-------------|
g|---8--9-----8--9-----8-|9--------9--------7--9-|9--------9-------------|
d|-----------------------|9--------9-------------|9--------9-------------|
a|-----------------------|-----------------------|-----------------------|
e|-----------------------|-----------------------|-----------------------|


e|------7--------7-------|------5--------5-------|0-----0-----2----------|-
b|6--7-----6--7-----6--7-|4--5-----4--5-----4--5-|0-----0-----4----------|--
g|-----------------------|-----------------------|1-----1-----4----------|--
d|-----------------------|-----------------------|2-----2-----4----------|--
a|-----------------------|-----------------------|2-----2-----2----------|--
e|-----------------------|-----------------------|0-----0-----2-----2--2-|2-

FILL-IN:

e|------12-------12------|12-------12-------12---|-----------------------|
b|11-12----11-12----11-12|---11-12----11-12------|10---------------------|
g|-----------------------|-----------------------|---12----9--12----9--12|
d|-----------------------|-----------------------|-----------------------|
a|-----------------------|-----------------------|-----------------------|
e|-----------------------|-----------------------|-----------------------|


e|-----------------------|---15----15----15----15|---15----15-------15---|
b|-----------------------|14----14----14----14---|14----14-------14------|
g|---9--12----9--12------|-----------------------|-----------------------|
d|-----------------------|-----------------------|-----------------------|
a|-----------------------|-----------------------|-----------------------|
e|-----------------------|-----------------------|-----------------------|


e|15-12------------------|12-------12------------|-----------------------|
b|---------12----12-14---|------14---------------|12-------12----12-12---|
g|-----------------------|-----------------------|-----------------------|
d|-----------------------|-----------------------|-----------------------|
a|-----------------------|-----------------------|-----------------------|
e|-----------------------|-----------------------|-----------------------|


e|------12---------------|---0-----0-----0-----0-|-----------------------|
b|12-------12----11-10-8-|5-----3-----2-----1----|0----------------------|
g|-----------------------|-----------------------|---3--2--0-------------|
d|-----------------------|-----------------------|-----------------------|
a|-----------------------|-----------------------|-----------------------|
e|-----------------------|-----------------------|-----------------------|

OUTRO:

e|------12-------12------|12----------10----10---|------12-------12------|
b|11-12----11-12----11-12|---11-12---------------|11-12----11-12----11-12|
g|-----------------------|-----------------------|-----------------------|
d|-----------------------|-----------------------|-----------------------|
a|-----------------------|-----------------------|-----------------------|
e|-----------------------|-----------------------|-----------------------|

e|10-10-9--9--10-10-9--9-|10-10-9--9--10-10-9--9-|10-10-9--9--10-10-9--9-|
b|-----------------------|-----------------------|-----------------------|
g|-----------------------|-----------------------|-----------------------|
d|-----------------------|-----------------------|-----------------------|
a|-----------------------|-----------------------|-----------------------|
e|-----------------------|-----------------------|-----------------------|

e|-----------------------|-----------------------|---7--7--5-------------|
b|---------8-----8-------|---------8-------------|7-----------7----------|
g|9-----------------9--r-|9-----------------7>>8-|------------------5>>6-|
d|------9----------------|------9----------------|-----------------------|
a|-----------------------|-----------------------|-----------------------|
e|-----------------------|-----------------------|-----------------------|

e|---5-----3--5--3-------|---0-----0-----0-------|---------------||-7----|
b|5-----------------5--3-|5-----3-----2-----1----|0--------------||-9----|
g|-----------------------|-----------------------|---3--2--0-----||------|
d|-----------------------|-----------------------|---------------||------|
a|-----------------------|-----------------------|---------------||------|
e|-----------------------|-----------------------|---------------||------|

e|10----7--7--------8----|10----7--7--------8----|10-10-7--7--10-10-7--7-|
b|9-----------------9----|9-----------------9----|9--9--9--9--9--9--9--9-|
g|-----------------------|-----------------------|-----------------------|
d|-----------------------|-----------------------|-----------------------|
a|-----------------------|-----------------------|-----------------------|
e|-----------------------|-----------------------|-----------------------|

e|10-10-7--10----7--10---|-----------------------|------12---------------|
b|9--9--9--9-----9--9----|12-11-12-12----11-12---|12-------12----11-10---|
g|-----------------------|-----------------------|---------------------12|
d|-----------------------|-----------------------|-----------------------|
a|-----------------------|-----------------------|-----------------------|
e|-----------------------|-----------------------|-----------------------|

e|-----------------------|12-12-12-12------------|------12-12------------|
b|---------------------12|------------------14-r-|14----------------14-r-|
g|9-----9--9-----9--13---|-----------------------|-----------------------|
d|-----------------------|-----------------------|-----------------------|
a|-----------------------|-----------------------|-----------------------|
e|-----------------------|-----------------------|-----------------------|

e|------12-12------------|------12-12----10-10---|-----------------------|--
b|14----------------14-r-|14-------------------12|11-10------------------|--
g|-----------------------|-----------------------|------12--9------------|8-7
d|-----------------------|-----------------------|-----------------------|--
a|-----------------------|-----------------------|-----------------------|--
e|-----------------------|-----------------------|-----------------------|--
Ты успокой меня    
        Am                      Dm
Ты успокой меня, скажи что это шутка
            E                    Am
Что ты по-прежнему, по-старому моя
 E      Am                       Dm
Не покидай меня, мне бесконечно жутко
           E                           Am
Мне так мучительно, так страшно без тебя 

         G                 C
Но ты уйдешь холодной и далекой
        E                     Am
Укутав сердце в шелк и шиншилла
 E      Am                         Dm
Не покидай меня, не будь такой жестокой
             E                   Am
Пусть мне покажется что ты еще моя
Капитан Африка    
Am              Am+7  Am7             D7
Фантастический день; моя природа не дает мне спать,
   Dm            F+7            C+7         E7
Пожарные едут домой: им нечего делать здесь.
Am          Am+7                  Am7
Солдаты любви, мы движемся, как призраки
            D7
Фей на трамвайных путях;
     Dm                     F+7               C+7
Мы знаем электричество в лицо - но разве это повод?
      У7
Развяжите мне руки;
Am     Hm          F
Я вызываю капитана Африка... 

Сколько тысяч слов - все впустую,
Или кража огня у слепых богов;
Мы умеем сгорать, как спирт в распростертых ладонях;
Я возьму свое там, где я увижу свое:
Белый растафари, прозрачный цыган,
Серебряный зверь в поисках тепла;
Я вызываю капитана Африка...
Лучший город земли    
Пpоигpыш: A G F E  2 pаза

E                 A                   F#m
 Ты никогда не бывал в нашем гоpоде светлом
                 D                  E
 Hад вечеpней pекой не мечтал до заpи
                      A                  F#m
 С дpyзьями ты не бpодил по шиpоким пpоспектам,
                 D                   E
 Значит ты не видал лyчший гоpод земли.

Пp:
    A        F#m  D       E  A       F#m    D   E   A
   Песня плывет, сеpдце поет эти слова о тебе, Москва!

Ты к нам в Москвy пpиезжай и пpойдись по Аpбатy,
Окyнись на Твеpской в шyм зеленых аллей,
Хотя бы pаз посмотpи, как танцyют девчата
Hа ладонях больших голyбых площадей.

Пpоигpыш: Gm Cm F B Gm Cm F
                                B                   Gm
   Слова ты вспомнишь мои, если только пpиедешь
                   Cm                  F
   И yвидишь хоть pаз лyчший гоpод земли.

;* Последний пpипев тpанспониpyется ввеpх на пол-тона, смотpи пpоигpыш.
Вариант 2    
G                C
Ты никогда не бывал
                Am
В нашем городе светлом,
               F
Hад вечерней рекой
               G
не мечтал до зари,
G                   C
С друзьями ты не бродил
              Am
По широким проспектам, -
                F
Значит, ты не видал
                G
Лучший город земли.

Припев.
   C        Am
   Песня плывет,
   F        G
   Сердце поет.
   C      Am
   Эти слова
       F   G9-  C
   О тебе, Мо - сква!

Ты к нам в Москву приезжай
И пройди по Арбату,
Окунись на Тверском
В шум зеленых аллей.
Хотя бы раз посмотри,
Как танцуют девчата
Hа ладонях больших
Голубых площадей.

Припев.

Слова ты вспомнишь мои,
Если только приедешь
И увидишь хоть раз
Лучший город земли.

Припев.
Вавилон    
C                                  F  G
В этом городе должен быть кто-то еще;
C                                   F  G
В этом городе должен быть кто-то живой.
Я знаю, что когда я увижу его, я не узнаю его в лицо,
Но я рад - в этом городе есть еще кто-то живой; 

Две тысячи лет, две тысячи лет;
Мы жили так странно две тысячи лет.
Но Вавилон - это состоянье ума; понял ты, или нет,
Отчего мы жили так странно две тысячи лет?

        C               G
И этот город - это Вавилон,
И мы живем - это Вавилон;
Я слышу голоса, они поют для меня,
Хотя вокруг нас - Вавилон...