В начало
АБВГДЖЗИКЛМНОПРСТУФХЦЧШЭЮЯA-Z0-9
 
Машина Времени - 50 на двоих
Все с начала    
D
Я во что-то верил и чего-то ждал
В толчее бессмысленных дней,
Только я устал, только я не стал
Ни богаче, ни умней.
     A               G
Я менял любовь на любовь,
     A               G
Я искал добра от добра,
        E      A
Только вижу теперь, -
        D
Всё напрасно.

А когда-то был целым миром двор,
Был полон тайн чердак.
Семь тысяч дней прошло с тех пор,
Я не заметил как.
Видно что-то пора менять,
Только что, - не могу понять.
Обещали мне - всё впереди, -
Как знать...

И казалось мне, без моих идей
Мир не сможет прожить и дня,
Оказалось в мире полно людей,
И все умней меня.
Отчего же за столько лет
Так лениво меняется свет,
И бредут мудрецы
След в след.

И я хотел познать добро и зло,
Чтоб отличить добро от зла,
Мне повезло, - я смог понять,
Как труден шаг от слов к делам.
И как глупо рубить с плеча,
И как просто быть правым в речах,
И как страшно бывает начать
Всё сначала.
Я ни разу за морем не был    
A    G        F#m
Я ни разу за морем не был, 
        D        E      A
Сердце тешит привычная мысль,- 
       A      G     F#m
Там такое же синее небо, 
     D       E      A
И такая же сложная жизнь. 
       C#m             D
Может там веселей и богаче, 
       C#m     D       E 
Ярче краски и лето теплей. 
        A         G         F#m
Только так же от боли там плачут, 
          D       E      A
Так же в муках рожают детей. 

Может я не совсем понимаю 
Явной выгоды тайных измен. 
Отчего же я чаще теряю, 
Ничего не имея взамен. 
За какими же новыми благами, 
Вольным - воля, спасённому - рай, 
Всё бегут, притворяясь бродягами, 
Пилигримы в неведомый край. 

Что задумано, сделано, пройдено, 
Бросишь всё, ни о чем не скорбя. 
Только где-то кончается Родина, 
Если Родина есть у тебя. 
Оглянись на прощанье, и, - вот она 
Под ногами чужая земля. 
То ли птицы летят перелётные, 
То ли крысы бегут с корабля.
Песня о капитане    
 Am                E7        Dm        Gm
Случилось так, что небо было сине и бездонно,
   Dm             E7      Am         A7
И легкий ветер по морю, гнал мелкую волну,
Dm            Gm            Am         A7
И был корабль полон, и друзьями, и знакомыми,
  Dm              E7        A7  Dm
И путь держал в далекую страну.
                  E7        Am
И путь держал в далекую страну.

И капитан был опытный. Он все моря проплавал,
Он силы был недюженной - дубы валил плечом.
И нам казалось: много нас. Мы сильные, мы храбрые,
И никакие бури нипочем...

Но что для моря наш корабль - скорлупка несерьезная.
И вот однажды вечером попали мы в туман.
Средь неба грянул гром, собрались тучи грозные,
Пронесся средней силы ураган...

И вот, что удивительно. Все сильные и храбрые,
И все, кому мы верили, воскликнули: "Тону!"
Мы ждали от них помощи, они-же нас оставили,
И первыми отправились ко дну...

А нас носило по морю, надежды наши таяли.
И только по случайности, нас приняла земля.
И те из нас, кто выжили. По разным обстоятельствам,
Забыли капитана корабля..
Вариант 2    
Dm7 G Dm7 G

C                     Am
  Случилось так, что небо
      F         G
Было синее, бездонное
C                 Am
  И легкий ветер по морю
F                 G
  Гнал мелкую волну
Em               Am
  И был корабль полон
       F          G
И друзьями, и знакомыми
   F               G         Am Am7 Am
И путь держал в далекую страну
   F               Fm        G
И путь держал в далекую страну

И капитан был опытный
И все моря проплавал он
Он силы был недюжинной
Дубы валил плечом
И нам казалось много нас
Мы сильные и храбрые
И ни какая буря нипочем
F             G        Dm7 G Dm7 G
  И ни какая буря нипочем

Hо что для моря наш корабль
Скорлупка несерьезная
И вот однажды вечером
Попали мы в туман
Средь неба грянул гром
Собрались тучи грозные
    F             G       Am Am7 Am
Пронесся средней силы ураган  (тут повторять не надо)

И вот, что удивительно
Все сильные и храбрые
И все кому мы верили
Воскликнули: "Тону!"
Мы ждали от них помощи
Они же нас оставили
И первыми отправились ко дну
   F          Fm           G
И первыми отправились ко дну

А нас носило по морю
Hадежды наши таяли
И только по случайности
Hас приняла земля
И те из нас, что выжили
По разным обстоятельствам
Забыли капитана корабля
   F        G         Dm7 G Dm7 G C
Забыли капитана корабля

Аккорды Dm7 и G в проигрыше
лучше играть на 5-м и 7-м ладах, соответственно.
Наш дом    
 C      Em
Годы летят стрелою,
  C      Em (A7?)
Скоро и мы с тобою
 C        A7       Dm   G
Разом из города уйдем.
Где-то в лесу дремучем
Или на горной круче,
Сами себе построим дом.

     F      G7    C       Am
Пр: Там вокруг такая тишина,
      F    G7             C     A7
    Что вовек не снилась нам,
    Dm   G7        C              Am
    И за этой тишиной, как за стеной,
      F     G7            C
    Хватит места нам с тобой.

Двери покрепче справим,
Рядом на цепь посадим
Восемь больших голодных псов.
Чтобы они не спали,
К дому не подпускали
Горе, врагов и дураков.


Рядом с порадной дверью
Надо вкопать скамейку,
А перед ней тенистый пруд.
Чтобы присев однажды
Мог бы подумать каждый,
Нужен ли он кому-то тут ?
Поезд    
  C
Мчится поезд, поезд мчится
G
И навязчиво маняще,
C         Em              Am
В такт колес в висках стучится:
C         Em           Am
"Завтра что-нибудь случится,
 C                     G
Завтра то, что нынче снится,
D                    Am    C D7 G
Может сбыться в настоящем."

В темноте, виском прижавшись
К запотевшему стеклу,
Я слежу, как разбежавшись
Мысль на воле оказавшись,
Обретает смысл и сжатость
Слова, сказанного вслух.

Путь бесцельный, миг беспечный,
Вижу город незнакомый.
И, доехав до конечной,
Тороплюсь на поезд встречный.
Верить хочется, что вечно
Все пути приводят к дому.

Торопись, беги, прощайся,
Не успеешь оглянуться,
Ни на горе, ни на счастье
Вверь, надейся, жди, отчайся,
Но возвращайся, возвращайся,
Если есть, куда вернуться...
Случилось    
Перебор (C):
E|---------0--------|---------0--------|---------0--------|---------0-------3-|      
H|-------1-----1----|-------1-----1----|-------1-----1----|-------1-------0---|                                       
G|-----0-----0---0--|-----0-----0---0--|-----2-----2---2--|-----2-------0-----|                                  
D|------------------|------------------|------------------|-------------------|  
A|--3---------------|--2---------------|--0---------------|--0----------------|   
E|------------------|------------------|------------------|-----------3-------| 

E|---------0--------|---------0--------|---------0--------|----------1--------|
H|-------1-----1----|-------1-----1----|-------1-----1----|--------1-----1----|
G|-----0-----0---0--|-----0-----0---0--|-----2-----2---2--|------2-----2---2--|
D|------------------|------------------|------------------|-------------------|
A|--3---------------|--2---------------|--0---------------|--0----------------|
E|------------------|------------------|------------------|-------------------|

E|---------1--------|---------1--------|---------1--------|----------1--------|
H|-------3-----3----|-------3-----3----|-------0-----0----|--------0-----0----|
G|-----2-----2---2--|-----2-----2---2--|-----0-----0---0--|------0-----0---0--|
D|--0---------------|------------------|------------------|-------------------|
A|------------------|--3---------------|------------------|-------------------|
E|------------------|------------------|--3---------------|--3----------------|

E|---------1--------|---------1--------|---------1--------|----------1--------|
H|-------3-----3----|-------3-----3----|-------0-----0----|--------0-----0----|
G|-----2-----2---2--|-----2-----2---2--|-----0-----0---0--|------0-----0---0--|
D|--0---------------|------------------|------------------|-------------------|
A|------------------|--3---------------|------------------|-------------------|
E|------------------|------------------|--3---------------|--3----------------|

Соло в начале песни:
E|--10h11h13--10-10---10-10h11h13--10-10---10-10-11-13--10-10--|-------------------------|
H|-------------------------------------------------------------|--10-11-13--11-11--------|
G|-------------------------------------------------------------|-------------------------|
D|-------------------------------------------------------------|-------------------------|
A|-------------------------------------------------------------|-------------------------|
E|-------------------------------------------------------------|-------------------------|

E|--10-11-13--10-10---10-10-11-13--10-10---10-10-11-13--10-10--|----------------------------|
H|-------------------------------------------------------------|--10-11-13-11---11-10-------|
G|-------------------------------------------------------------|----------------------12-10-|
D|-------------------------------------------------------------|----------------------------|
A|-------------------------------------------------------------|----------------------------|
E|-------------------------------------------------------------|----------------------------|

E|--10-11-13--10-10---10-11-13--10-10--10-11-13--10-10--|
H|------------------------------------------------------|
G|------------------------------------------------------|
D|------------------------------------------------------|
A|------------------------------------------------------|
E|------------------------------------------------------|

E|----------------------------|---------------------------------------------|
H|--11-10h11p10---------------|---------------------------------------------|
G|---------------12-10--------|-13b14-----14b15r14--11----11----------------|
D|----------------------------|------------------------12----12--10h12p10---|
A|----------------------------|---------------------------------------------|
E|----------------------------|---------------------------------------------|


Перебор (A):
                                                                  /----------1---------|

E|---------------------|------------------|----------------------|---------------------||
H|----------2----------|-----------2------|--------2-------------|----------------0----||
G|---(2)-------2---2---|---(4)---4---4----|------2-----2---2-----|-------2------1-----*||
D|--------2------2-----|-------2-------2--|----2---------2-------|---(2)------2-------*||
A|--0------------------|------------------|----------------------|---------------------||
E|---------------------|--4---------------|--2-------------------|--2-------0----------||


 /---------2-----------|

E|----------2----------||-----------------|-------------0--------|---------------------|
H|--5------------5-----||--------3--------|---------3------------|-------0-------0-----|
G|--------2------2-----||*---2-----2---2--|-----2-----2---2------|----------1----------|
D|------2-----2--------||*-----4-----4----|-------4---------4----|-----2-------2-------|
A|---------------------||--2--------------|--0-------------------|---------------------|
E|--2------------------||-----------------|----------------------|--0------------------|

 /------------1--------| /--------2-------|

E|---------------------||-----------------|----------------------|---------------------|
H|-----------0---------||---------0-------|----------------------|---------------------|
G|-------1------------*||----1-------1----|----------------------|---------------------|
D|----2----------2----*||-------2---------|----------------------|---------------------|
A|---------------------||-----------------|----------------------|---------------------|
E|--0------------------||--0--------------|----------------------|---------------------|

Solo: в начале песни
        2x                                     3x
E|--9h10h12-9-9--|--5h7h9--5-5-5----|--9h10h12-9---|--5-7h9--5-4-5-4----|
H|---------------|------------------|--------------|-----------------7--|
G|---------------|------------------|--------------|--------------------|
D|---------------|------------------|--------------|--------------------|
A|---------------|------------------|--------------|--------------------|
E|---------------|------------------|--------------|--------------------|
         2x                                             (/Sl)
E|--9h10h12-9-9--|--5--4h5--4-------|--/5----------|--8p7p5---5---------|
H|---------------|------------7--5--|------7--5----|--------7---5h7--7--|
G|---------------|------------------|----7------7--|--------------------|
D|---------------|------------------|--------------|--------------------|
A|---------------|------------------|--------------|--------------------|
E|---------------|------------------|--------------|--------------------|

Solo: в середине песни

E|----------------------------------9-10-9--9---------------------------------|
H|-9h10h12-9-9-9--9-10-12-9-------10------10-12-10---------10-9-10-12-9-10----|
G|-------------------------9-10-11----------------9h11-9--9-------------------|
D|------------------------------------------------------11--------------------|
A|----------------------------------------------------------------------------|
E|----------------------------------------------------------------------------|

                                .
E|------------------------------9------------------9---9--(9)-9--9-----9-----9------|
H|----------9--9-10---9-10-10h12-12-10-----0-(0)-10-10-10h12--10-10h12-10h12-10h12--|
G|--11-10-11-11-------------------------11-9h11-------------------------------------|
D|----------------------------------------------------------------------------------|
A|----------------------------------------------------------------------------------|
E|----------------------------------------------------------------------------------|


E|---------------------------------------------------------------------------|
H|--10---------------------------------------------10-9----------------------|
G|----11-9-10-11-9--9-------9-----11p9---11p9--9-------11--------------------|
D|----------------11-9-10-11-11p10-----11----11-11---------------------------|
A|---------------------------------------------------------------------------|
E|---------------------------------------------------------------------------|

                      |  |    |  |
                     \|/\|/  \|/\|/
Кода:   Аккорды   ||:  A      E  A:|| - Gtr.3

Gtr.1
                                                     4x
E||--0-2----------|----0----------|--0--------------|--0-------------------||-------H||------0-3-2----|------2-0-0----|----2-0-0-3-2----|----2-0-0-------------||        |
G||*--------------|------------2--|-----------------|----------2-2--------*||        |
D||*--------------|---------------|-----------------|---------------------*||        |
A||---------------|---------------|-----------------|----------------------||        |
E||---------------|---------------|-----------------|----------------------||        |
                                                                                     \ (вместе)
Gtr.2                                                                                /
                                                                                     |
E||----7-9999999--|--77-10-99999--|-----7-9999999---|--77------------------||        |
H||--10-----------|---------------|--10-------------|----9-10-10-10-10-10--||        | 
G||*--------------|---------------|-----------------|----------------------||        | 
D||*--------------|---------------|-----------------|----------------------||        |
A||---------------|---------------|-----------------|----------------------||        |
E||---------------|---------------|-----------------|----------------------||-------/

    A               A+7     F#m Dm7 E
Случилось что-то в городе моём,
     A           A+7             F#m  Gdim
Бульвары встрепенулись, словно крылья,
    Hm            Hm+7     E
А просто скука, смытая дождём,
   Hm         Dm+7           E
Была, как оказалось, просто пылью.

И понял я, что также я не волен
В случайных поворотах бытия,
Что я не одинок, что я не болен,
Растерянность уйдет, останусь я.

Что я останусь, но еще успею
Уйти, не оглянувшись, в пустоту.
И с кем расстанусь, тем пока не смею
Сказать, что мне уже невмоготу.

А мир пожалуй стоит изменить,
Пусть станем мы добрей и старомодней.
Доверчивей, наивнее любить,
И искренней, а стало быть свободней.

Но ведь случилось что-то в мире под дождем,
Пустыни раскаленные остыли.
Смеются люди в городе моём,
Дождем освобождённые от пыли.

   Gdim
+-+-+-+-+-+
| | 0 | 0 | II
+-+-+-+-+-+  V
| | | 0 | 0 VIII
+-+-+-+-+-+

Подбор соло: Pashin Timophei (t_pashin@mail.ru)
Когда мы сойдем с ума  
Я теряю с улыбкой, ты ищешь в тоске- не беда.
Время быстро уходит сковзь пальцы - на то и вода
Ты еще видишь сны, а я вижу бетон,
Мы всю жизнь говорим, и всю жизнь не о том...
Знаешь, близится день, когда все мы сойдем с ума!

Она ходит на срочную службу, он - ходит с бубей.
Он богат, как султан, а у ней денег нет, хоть убей.
Она копит на жвачку, а он - на дома
Но кончается век, на исходе зима,
И настанет тот день - они оба сойдут с ума!
Есть предел, за которым вода превращается в лед
Если все стены в ружьях, поверь - хоть одно, да пальнет.
Ты закроешь глаза и откроешь глаза,
И ты можешь быть "против", а можешь быть "за",
Приближая тот день, когда все мы сойдем с ума.
Мы живем так давно, что мы можем уже не спешить.
И не важно, кто жил, чтобы петь, а кто пел, чтобы жить.
И мы, сидя на троне, над кучей дерьма, 
Наливаем друг другу дурного вина,
Отмечая тот день, когда все мы сойдем с ума.
Сойдем с ума...
Я дам тебе знать    
H7         E  H7                   E
 Когда солдаты пpидут с победой домой
            A7  Am             E    C#7
 Когда мы сможем гоpдится стpаной
        Fm#7           Am7    _       E     C#7
 Когда летним днем закpужит снег в моем окне
    Fm#7          H7                     E H7
 Я дам тебе знать    и ты веpнешься ко мне

Когда в столице не станет уличных дам
Hе будут бить ни по лицам, ни по паспоpтам
Когда для всех вождей _мавзолей поставят на Луне
Я дам тебе знать и ты веpнешься ко мне

Проигрыш: A7 E A7 H7

Когда моpской пpибой пpивpатится в отбой
Когда за мной и тобой пpидет аpхангел с тpубой
Когда наша жизнь пpивидится мне в кошмаpном сне
Я дам тебе знать и ты веpнешься ко мне
Крестики нолики    
  Fm#
Кpестики, нолики, фантики
  G#7            Cm#
Стали тепеpь солдатики
  F#7            Hm
Стали тепеpь служивые
 G#7            C#7
Каждому вышел сpок
   Fm#
С вечеpа споpили, ссоpились
G#7            Cm#
А по утpу постpоились
F#7           Hm
А по утpу пpицелились
 G#7            C#7
Каждый нажал куpок

Пpипев:
       Fm#       C#7     D
  Спускаясь к великой pеке
       A       D       A        C#7
  Мы все оставляем следы на песке
     Fm#        C#7        D
  И лодка скользит в темноте
     A      D                C#7
  А нам остаются кpуги на воде

Сабельки, пулечки, пушечки
Выбpитые макушечки
Цепкие лапы Родины
Да письмецо семье
Холмики, кpестики, нолики
Где вы тепеpь, соколики
Где вы тепеpь, служивые
Спите в какой земле?

Пpипев:
Я тоже был    
C     Em         Am     C7
Я тоже был весёлым и беспечным, 
        Dm         G7            Am      G
Доволен каждым днем и каждой встрече рад. 
         C       Em             Am
Был ярок свет и жизнь казалась вечной 
            Dm         G
Всего лишь день назад, 
            Am         G7
Всего лишь день назад. 

И я бежал зелеными лугами, 
Новорожденный мир хотелось мне обнять 
Была земля цветущей под ногами 
Всего лишь день назад, 
Всего лишь день назад. 

C       H+5             Bb6
Но я узнал, как больно ранят 
     A7          D97
Неосторожные слова 
        G6
И равнодушный взгляд 
          Dm
И как несносен мир, 
        G7
Когда идут дожди, 
        Dm
И как печален путь, 
        G7
Когда идешь один. 

И я один, как лодка в океане 
И весла бросил прочь, я буре буду рад, 
Я почему-то верил, 
Счастье не обманет 
Всего лишь день назад, всего лишь день назад, 
Всего лишь день назад, всего лишь день назад...
Вариант 2    
        G   H7           Em     C7
Я тоже был веселым и беспечным,
         Am7        D7
Доволен каждым днем,
             Em      D
И всякой встрече рад.
           G     H7             Em    C7
Был ярок свет и жизнь казалась вечной
       Am7            D7
Всего лишь день назад,
            Em        D
Всего лишь день назад.

И я бежал зелеными лугами
Hоворожденный мир
Хотелось мне обнять.
Была земля цветущей под ногами
Всего лишь день назад,
Всего лишь день назад
            Am        D
Всего лишь день назад,
            G         D
Всего лишь день назад.

       G      H7             Em
      Hо я узнал как больно ранят
                       C
      Hеосторожные слова
              Am7
      И равнодушный взгляд,
                D7
      И как несносен мир,
              Am7
      Когда идут дожди,
               D7
      И как печален путь,
              Am7       D
      Когда идешь один.

И я один, как лодка в океане,
И весла бросил прочь,
И буре буду рад.
Я почему- то верил, счастье не обманет
Всего лишь день назад
Всего лишь день назад
Всего лишь день назад
Всего лишь день назад.
Вариант 3    
Подбор: Александр Емелин, 2:5020/856.43

        G   Hm7          Em7     G7
Я тоже был веселым и беспечным,
         Am7        D7
Доволен каждым днем,
             Em7      D
И всякой встрече рад.
           G     Hm7            Em7    G7
Был ярок свет и жизнь казалась вечной
       Am7            D7
Всего лишь день назад,
            Em7        D
Всего лишь день назад.

И я бежал зелеными лугами
Hоворожденный мир
Хотелось мне обнять.
Была земля цветущей под ногами
Всего лишь день назад,
Всего лишь день назад
Всего лишь день назад,
Всего лишь день назад.

       G      F#             F
      Hо я узнал как больно ранят
             E         A
      Hеосторожные слова
              D7
      И равнодушный взгляд,
                Am
      И как несносен мир,
              D7
      Когда идут дожди,
               Am
      И как печален путь,
              D
      Когда идешь один.

И я один, как лодка в океане,
И весла бросил прочь,
И буре буду рад.
Я почему- то верил, счастье не обманет
Всего лишь день назад
Всего лишь день назад
Всего лишь день назад
Всего лишь день назад.
Я привык бродить один    
Для первых двух строчек 1 и 2 куплетов:
e |----------------------------------------------------0-|
H |----------------------------------------------------0-| G |------------------------------------------------1---1-|   x2 раза
D |---9-----9-----9-----9-----5-----5-----5-----2-2----2-| /
A |--9-9---9-9---9-9---9-9---5-5---5-5---5-5---2-2-----2-|
E |-7-----6-----5-----4-----3-----2-----1-----0--------0-|

Hm            Hm/A#
Я привык бродить один
       Hm/A        Hm/G#
И смотреть в чужие окна, 
    Gmaj       F#m
В суете немых картин 
     F                E
Отражаться в мокрых стёклах, 
       Em          F#
Мне хотелось бы узнать 
          G
Что вас ждет 
          F#          Hm
И что тревожит ваши сны 
         Bbsus2        D
Но вот опять приходит ночь 
           E7
И день напрасно прожит 

Мы устали от потерь, 
А находим слишком редко. 
Мы скитались, а теперь 
Мы живем в хрустальных клетках. 
И теперь чужая радость 
Не осушит наших слез 
И нам осталось 
Только ждать, какая малость, 
Ждать того, кто не придёт. 

Трудно ждать себе не веря, 
Все стерпеть ещё труднее. 
Зажгите свет, откройте двери, 
Быть может мы ещё успеем, 
Быть может мы ещё услышим, 
Как стучат сердца и я из дома вышел, 
И увидел, я один и только 
Снег на крышах. 

И я бежал из ледяного плена, 
Слишком мало на земле тепла, 
Но я не сдамся, я солдат вселенной, 
В мировой войне добра и зла. 
И грянул бой на целый белый свет 
И через миг земля очнулась ото сна 
А на земле, как всегда, 
То зима, то весна ...

Вариант:
   И я бежал из ледяного плена, слишком мало на земле тепла,
   Но я не сдамся, я -- Солдат Вселенной
   В Мировой борьбе Добра и Зла,
   И я обрушил тучи жгучих молний
   В этот мир молчания и льда...
   А на Земле как всегда,
   То Зима, то Весна.
Он был старше ее    
         Em
Он был старше ее, она была хороша
В ее маленьком теле гостила душа
       Am                   H7              Em
Они ходили вдвоем, они не ссорились по мелочам
          Em
И все вокруг говорили - чем не муж и жена
И лишь одна ерунда его сводила с ума -
      Am            H7               Em
Он любил ее, она любила летать по ночам

Припев:
   E                                 (соло - g#e|af#|hg#|g#e)
   Он страдал, если за окном темно
                            Am       (ca|dh|ec|ca)
   Он не спал, на ночь запирал окно
                           H7        (d#a|eh|f#c|d#a)
   Он рыдал, пил на кухне горький чай
                               Em
   В час, когда она летала по ночам
   А потом поутру она клялась,
   Что вчера - это был последний раз
   Он прощал, но ночью за окном темно
   И она улетала все равно

А он дарил ей розы, покупал ей духи,
Посвящал ей песни, читал ей стихи,
Он хватался за нитку, как последний дурак
Он боялся, что когда-нибудь под полной луной
Она забудет дорогу домой
И однажды ночью вышло именно так

(Припев - в предпоследней строке вместо "прощал" - "молчал").

И три дня и три ночи он не спал и не ел,
Он сидел у окна и на небо глядел,
Он твердил ее имя, выходил встречать на карниз.
А когда покатилась на убыль луна
Он шагнул из окна, как шагала она,
Он взлетел, как взлетала она, но не вверх, а вниз.

(Проигрыш и вторая часть припева в первом варианте).
Однажды мир прогнется под нас    
Em Em* Em                (Em* == 300220)

     Em       D           C
 Вот море молодых колышат супербасы
       H7                       Em
 Мне триста лет, я выполз из тьмы
                 D             C
 Они торчат под рейв и чем-то пудрят носы
H7                  Em
 Они не такие, как мы
   Am
 И я не горю желаньем лезть в чужой монастырь
                            H7
 Я видел эту жизнь без прикрас

Припев:
        Em        D            A        C
   Hе стоит прогибаться под изменчивый мир
    H7                           Em
   Пусть лучше он прогнется под нас
      A            H7        Em
   Однажды он прогнется под нас

  Один мой друг, он стоил двух, он ждать не привык
  Был каждый день последним из дней
  Он пробовал на прочность этот мир каждый миг
  Мир оказался прочней
  Hу что же, спи спокойно, позабытый кумир
  Ты брал свои вершины не раз

Припев:

  Другой держался русла и теченье ловил
  Подальше от крутых берегов
  Он был, как все, и плыл, как все, и вот он приплыл
  Hи дома, ни друзей, ни врагов
  И жизнь его похожа на фруктовый кефир
  Видал я и такое не раз

Припев:

  Пусть старая джинса давно затерта до дыр,
  Пускай хрипит раздолбанный бас -

Припев:

Em D A C   H7                     Em
         Однажды он прогнется под нас...   (несколько раз)
Эпоха большой нелюбви    
Вступление: Hm A,A,A,A,A,A Em7 Hm

    Hm
Когда стемнеет не по закону,
До срока и до поры
   Em
Я выключу свет и псом бездомным
 F#7
Выползу из конуры

    Hm
Hе бойся меня в этот сумрачный вечер
Имя свое назови
  Em             Hm
Я очень ценю случайные встречи
    F#                Hm  A,A,A,A,A,A Em7 Hm
В эпоху большой нелюбви

Тебе совсем не надо стараться
Держать неприступный взгляд
Ты тоже устала от всех отбиваться
А я, не клиент, а брат

Hадеюсь, ты примешь мое предложение
Мы выпьем и поговорим
Я очень ценю тепло отношений
В эпоху большой нелюбви

Ты все еще думаешь, я тебя "клею"
Hо, это твои дела
Поверь, что мне уже стало теплее
Похоже, и ты ожила

А все, что было, зачтется однажды
Каждый получит свои
Все семь миллиардов растерянных граждан
Эпохи большой нелюбви
Когда ты уйдешь    
            G
Когда ты уйдешь, совсем далеко,
           G7                 C
Я выпью вина - мне станет легко.
           G E7        C  Gdim
Потом закурю и выпущу дым,
                G D            G C D
Как в кайф иногда побыть холостым!

Дом станет моим, моей и кровать,
Я буду лежать и пеплом сорить
И мне наплевать, на все что было твоим,
Как в кайф иногда побыть холостым!

Пьянчуги друзья придут навестить,
Увидят меня от счастья хмельным
Мы сядем, споем эту песнь о тебе,
Как в кайф иногда побыть холостым!

И вещи твои покинут мой дом
Помада, духи - все исчезнет, как дым
И в драной джинсе я пою этот блюз,
Как в кайф иногда побыть холостым!

Когда ты уйдешь, совсем от меня
Я выпью вина и стану хмельным
И в драной джинсе я пою этот блюз
Как в кайф иногда побыть холостым!

      Gdim
   +-+-+-+-+-+
   | | 0 | 0 | II
   +-+-+-+-+-+
   | | | 0 | 0
   +-+-+-+-+-+
Дело дрянь    
       Em
Для чужого нет места в твоём раю,
А свои продолжают тебя предавать.
        A9/7
А ты выходишь вперёд: "Я вам спою!"
      H7                        C9/7
А гортань, как продавленная кровать,
       Em
Дело дрянь...

Душу в кровь изодрав, - напоказ, или впрямь ? -
Для чужих ты - пророк, а свои - вразброд,
А может быть сам ты - тварь, а может быть глуп народ,
Ты им про рай и про ад, а только дело-то дрянь ...
Дело дрянь...
Дело дрянь, оттого, что один для всех
Чёрств и пресен твой хлеб,
И слова, что скрипят на зубах, как песок,
Легче выплюнуть, чем проглотить.
Дело дрянь, оттого, что таланта нет,
И это - главный грех,
Если замысел ясен, и смысл высок,
Hо сначала ты хочешь мстить.
Один против всех, если не всё твоё,
"- Так !", услужливо на ухо шепчет проворный бес.
Договор наготове, капля крови - это один надрез,
В мире истины нет и каждая мысль - враньё.
И, один на один, с целым миром заносишь меч,
И никто не посмеет остановить эту сталь,
И вершится твой суд, но станет кому-то жаль
Этой боли, упавшей на землю с сутулых плеч.
Дело дрянь...
Посмотри как я живу    
       E             A7
Посмотри, как я живу,
E
Глядя с неба на Москву.
  A7
Слышишь музыку в часах,
 E
Шаг за шагом, день за днём,
     H
Я похож на черепаху
    A7              E  A7 H7
В круглом домике своём.

Посмотри, как я живу,
Как по злому волшебству.
Я свободен, как разбойник,
Я спокоен, как покойник,
В тихом домике моём
Можно спрятаться вдвоём.

Посмотри, как я живу,
Пью коньяк, курю траву,
На измученой гитаре
День в кумаре, ночь в угаре.
Кайф, похожий на облом,
В желтом домике моём.

Посмотри, как я живу,
По течению плыву,
Благодарен каждой твари
На зелёном нашем шаре.
На шести бесшумных лапах
Мимо молодость прошла.
Сон    
D
Снилось мне, 
            Em
Неожиданно выпал снег, 
   Hm        Em       F#m
В мире наступили тишина и свет, 
Hm          A           D
Свет и тишина, покой и белый снег. 
 Em           G                D
Жаль, что это только снилось мне. 

Снилось мне,
По притихшему городу,
Проплывает медленное облако,
Облако покоя в светлом городе.
Жаль, что это только снилось мне.

     D        Dmaj7   D7        D6
И теперь, наяву, я живу и не живу, 
D             C         Hm
 Сохранить пытаясь тишину. 
       D         Dmaj7
Но приходит за мной 
      D7             D6
Сумасшедший день земной
D         C          Hm
 И меня уводит за собой. 

Снилось мне, 
Что впервые за много лет, 
Счастье, почему-то, улыбнулось мне, 
Призрачное счастье в суматохе лет 
Жаль, что это только снилось мне. 

Снилось мне, 
Что печали кончаются, 
Люди одинокие встречаются. 
Встретятся, молчат и улыбаются 
Жаль, что это только снилось мне, 
Жаль ...
Вариант 2    

Вступление и припев:
A1 = e[030030]E
A2 = e[030020]E
A3 = e[030010]E
   A1      A2      A3       Am       A1               Am
e|-+--+--0-+--+--0-+--+--0-+--+---0-+--+---0--1-0-+-0-+--+--0-+--+--0---
H|-+---3-+--+--3-+--+--3-+--+---1-+--+---3-+--+---3-+-1-+-1-+-1-+-1-+-1-
G|-+-0-+--+--0-+--+--0-+--+---2-+--+---0-+--+--+--+--+--2-+--+--2-+--+--
D|-+--+--+--+--+--+--+--+--+--+--+--+--+--+--+--+--+--+--+----+--+--+---
A|-3-+--+--2-+--+--1-+--+---0-+--+---3-+--+--+--+--+--+----+--+--+--+---
E|-+--+--+--+--+--+--+--+--+--+--+--+--+--+--+--+--+---

Примечания:
1) можно делать для красоты и обратный ход перебора
2) П1 = D|-0-2-3(эта нота уже от F)

C                       Dm
Снилось мне: неожиданно выпал снег,
Am          Dm       Em
В мире наступили тишина и свет.
Am         G           C
Свет и тишина, покой и белый снег,-
Dm   П1 F               C
Жаль,   что это только снилось мне.

Снилось мне: по притихшему городу
Проплывает медленное облако.
Облако покоя в спящем городе,
Жаль, что это только снилось мне.

Припев:
    C     C/B     Am       Am/G#
   И теперь наяву я живу и не живу,
    C          C/B      Am
   Сохранить пытаясь тишину.
          C        C/B       Am            Am/G#
   Hо приходит со мной сумасшедший день земной
    C      C/B         Am     Am/G#
   И меня уводит за собой.

Снилось мне, что впервые, за много лет,
Счастье, почему-то, улыбнулось мне,
Призрачное счастье в суматохе лет,
Жаль, что это только снилось мне.

Снилось мне, что печали кончаются,
Люди одинокие встречаются,
Встретятся, молчат и улыбаются,
Жаль, что это только снилось мне.

Текст и подбор - Юрий Ларионов(пишите на адрес Alexei Emanov 2:5059/23.4)
Вариант 3    
Подбор: Александр Емелин, 2:5020/856.43

G                         Am7
Снилось мне - неожиданно выпал снег
Em           Am7      Hm
В мире наступила тишина и свет
Em          D           G
Свет и тишина, покой и белый снег
Am7      C                    G
Жаль, что это только снилось мне

Снилось мне - по притихшему городу
Проплывает медленное облако
Облако покоя в светлом городе
Жаль, что это только снилось мне

Припев:
     G        Hm7
И теперь, наяву
     G7        Cmaj7
Я живу и не живу
C            F         Em
Сохранить пытаюсь тишину
Hо приходит за мной
Сумасшедший день земной
И меня уводит за собой

Снилось мне, что впервые за много лет
Счастье почему-то улыбнулось мне
Призрачное счастье в суматохе лет
Жаль, что это только снилось мне

Снилось мне, что печали кончаются
Люди одинокие встречаются
Встретятся - молчат и улыбаются
Жаль, что это только снилось мне
Шанхай блюз    
Вступление:
A(V) C#m(C#m7;C#*) F#m(F#m7) A7 D E7 A
- это гармоника, от нее и пляшите.

 A   C#m7 (или C#*)
Давным-давно, 
 F#m     A7 (или спуск с F# на D)
Когда нам было все равно, 
   D         E7           A
Что пить, с кем жить, как быть, 
   (F#*) F#         Hm
И время проходило Hi-Fi -
 E7   A      E7 (D  E7)
Мы пели Блюз-Шанхай 

Когда свет, свет побед 
Прошлых лет сказал тебе "привет", 
Ну что ж, пускай... 
Ты голову не опускай, 
И вспомни, 
Вспомни Блюз-Шанхай.

Соберем старый хор, 
И возьмем 
Любимый ля-мажор. 
Тогда года - не беда. 
А не веришь - ты мне сам подыграй 
Все тот же Блюз-Шанхай.

А потом, за столом, 
О былом, и о том, и о сем, 
Мы споем. И нальем, 
И снова нальем, 
Пусть это будет не чай - 
Помянем Блюз Шанхай.

Шанхай блюз, шанхай блюз,
Шанхай блюз, шанхай блюз е-е-е и т.д...

Можно сделать в рок-н-рольном стиле: A C# D D# E D A
В скобочках приведены или лады, на которых ставится данный аккорд, либо аналог 
аккорда, который можно использовать для разнообразия.
C#*  |043404| этот аккорд надо играть пререборчиком иначе он не будет звучать
F#*  |212333| классный аккорд, осталось научиться ставить.
Старайтесь как можно больше разнообразить игру этой песни как в аккордах,
так и в ритме.

(Е.Маргулис, В.Сюткин, С.Миров)
Марионетки    
 C
Лица стерты краски тусклы
   A7
То ли люди, то ли куулы
  Dm              G
Взгяд похож на взгляд
           C
А тень на тень
    F          G
   Я устал и отдыхаю
       C               A7
   В балаган вас приглашаю
        Dm          G       C
   Где куклы так похожи на людей    (2 раза)

Арлекино и пираты, циркачи и акробаты,
И злодей чей вид внушает страх
   Волк и заяц, тигры в клетке - все они марионетки
   В ловких и натруженых руках

Кукол дергают за нитки, на лице у них улыбки
И  играет клоун на трубе
   И в процессе представленья создается впечатленье,
   Что куклы пляшут сами по себе

Ах до чего порой обидно что хозяина не видно
Вверх и в темноту уходит нить
    А куклы так ему послушны и мы верим простодушно
    В то что куклы могут говорить

Но вот хозяин гасит свечи.  Кончен бал и кончен вечери
Засияет вечер в облаках.
   Кукол снимут с ниток длинных. И засыпав нафталином
   в виде тряпок сложат в сундуках.
Вариант 2    
Вступление:
   Я играю веселенький простенький бой. 
   Играется он так: 
   играется G а потом пальцы с 5 и 6 струн переходят соответственно на 4 и 5 
   и так два раза (320033->032033->320033->032033)
   Потом один раз проигрываю G и пошел куплет. 
   Советую играть на две гитары: одна чешет ритм другая делает 
   простенький незатейливый переборчик.

G
Лица стерты, краски тусклы.
Em
То ли люди, то ли куклы.
C                       G
Взгляд похож на взгляд, а день на день.
C         D
Я устал и отдыхая,
G               E
В балаган вас приглашаю,
Am              D          C
Где куклы так похожи на людей.

Арлекины и пираты,
Циркачи и акробаты
И злодей чей вид внушает страх.
Волк и заяц, тигры в клетке - 
Все они марионетки
В ловких и нартруженных руках.    

Дальше играется G7 (320001) боем по струнам сверху вниз четыре раза и 
идет повтор трех последних строк
G7 G7 G7 G7
C            D
Волк и заяц, тигры в клетке - 
G          E7
Все они марионетки
Am             D        G
В ловких и натруженных руках.

Кукол дергают за нитки,
На лице у них улыбки
И играет клоун на трубе.
И в процессе представленья
Создается впечатленье,
Что куклы пляшут сами по себе.

Проигрыш+Соло.

Дальше гитара игравшая ритм уходит на повтор а вторая гитара играет следующее соло.
Это соло с тем же успехом может играться на синтезаторе (aka пианине) или духовом 
инструменте.

D--5-5-5-5-4--5-7--5-4-2--0-0-0-0---0-2-0---------------------------------------2-4--5--
A---------------------------------2-------3-2--3-3-3-3-0--3-5--3-2-0------2-3-5---------
E---------------------------------------------------------------------3-5---------------

Это соло можно повторить дважды. (Для закрепления пройденного материала так сказать :-))

Первые два аккорда в следующем куплете играются один раз в начале строки 
проводя по струнам сверху вниз, а потом опять по обычному ритму.

Ах, до чего ж порой обидно,
Что хозяина не видно - 
Вверх и в темноту уходит нить.
Куклы так ему послешны,        -Что мы верим простодушно,        > 2 раза
Что куклы тоже могут говорить. -/

Первые три строки следующего куплета играются в чуть более медленном темпе, 
чем всю песня, а потом, как бы ускоряяс на ударах по струнам 
на аккорде C все возвращается на обычные темп.

Но вот хозяин гасит свечи:
Кончен бал и кончен вечер,
Засияет месяц в облаках.
РАЗГОН
Кукол снимут с нитки длинной
И засыпав нафталином,
В виде тряпок сложат в сундуках.

Теперь опять первая гитара уходит на повтор, а вторая пару раз играет соло.
На заключительном соло добавляется D--0-5 (D->G) которое и заканчивает сию композицию.

Басс
Куплет
D--5--5---5--5---------------------------------5--5---5--5----|----------------5--5------------
A-------5------5---7--7---7--7---3--3---3--3--------5-----5-5-|3--3---5--5----------5--7--7----
E-----------------------7------7------3-----3-----------------|----3------5-5---------------7-7

D--7--7-----------5--5----5--5----
A------7--5--5---------5-------5-5
E--------------5------------------

Отделена вертикальной чертой табулатура баса для тех строк которые повторяются.
Во время проигрышей басс играет все тоже и опять же добывляется кода D-0-5.
Костер    
  Am                             C                G7
Все отболит, и мудрый говорит - каждый костер когда-то догорит.
 F        Em7              Am
Ветер золу развеет без следа.
Но до тех пор, пока огонь горит, каждый его по своему хранит,
Если беда, и если холода.

Раз ночь длинна, то жгут едва, и берегут и силы и дрова,
Зря не шумят, и не портят лес.
Но иногда найдется вдруг чудак, этот чудак все сделает не так.
Его костер взовьется до небес.

F          C        G  F                      Am
  Еще не все дорешено,   еще не все разререшено,
F          C    G
  Еше не все погасли краски дня.
    F               Em                 Am
  Еще не жаль огня,   судьба хранит меня.

Тот был умней, кто свой костер сберег - он обогреть других уже не мог,
Но без потерь дожил до теплых дней.
А ты был не прав, ты все спалил за час, и через час большой огонь угас,
Но в этот час стало всем теплей.
Вариант 2    
 Em
Все отболит, и мудрый говорит:
 G                D            C
Каждый костер когда-то догорит,
        D7     H7           Em
Ветер золу развеет без следа.

Hо до тех пор, пока огонь горит,
Каждый его по своему хранит,
Если беда и если холода.


ПРИПЕВ:  Em7 C

           D7       Em C
   Еще не все дорешено,
           D7       Em C
   Еще не все разрешено,
           D7    Em           C
   Еще не все погасли краски дня,
                Am7 D    H7          Em
   Еще не жаль огня - и бог хранит меня.


Раз ночь длинна, то жгут едва-едва
И берегут силы и дрова,
Зря не шумят и не портят лес.
Hо иногда найдется вдруг чудак,
Этот чудак все сделает не так,
И его костер взовьется до небес.

ПРИПЕВ.

Тот был умней, кто свой огонь сберег,
Он обогреть других уже не мог,
Hо без потерь дожил до теплых дней.
А ты был неправ, ты все спалил за час,
И через час большой огонь угас,
Hо в этот час стало всем теплей.

ПРИПЕВ - 2 раза.
Разговор в поезде    
   Dm
Вагонные споры последнее дело
    C
Когда больше нечего пить
    Gm
Но поезд идет за окном стемнело
   A7          Dm
И тянет поговорить

И двое сошлись не на страх, а на совесть
Колеса прогнали сон
Один говорил: наша жизнь - это поезд
Другой возражал - перон

Один говорил: на пути нашем чисто
Другой говорил: не до жиру
Один говорил, мол мы все машинисты,
Другой возражал - пассажиры

Один говорил куда хотим туда едем
И можем если надо свернуть
Другой возражал, что поезд проедет
Лишь там где проложен путь

Один говорил: нам открыты дороги
На много на много лет
Другой возражал: не так уж и много:
Все дело в цене на билет

И оба сошли где-то под Таганрогом
Среди бескрайних полей
И каждый пошел своею дорогой,
А поезд пошел своей.

Повтор 1-го куплета
Вариант 2    
   Am                                C
Вагонные споры - последнее дело, когда уже нечего пить.
    Dm                               E7          Am
Но поезд идет, в окошке стемнело, и тянет поговорить.

И двое сошлись не на страх, а на совесть - колеса прогнали сон.
Один говорил - наша жизнь - это поезд. Другой говорил - перон.

Один утверждал - на пути нашем чисто, другой говорил - не до жиру.
Один говорил, мол, мы машинисты, второй говорил - пассажиры.

Один говорил нам свобода - награда, мы поезд куда надо ведем
Второй говорил: задаваться не надо, как сели в него, так и сойдем

А первый кричал - нам открыта дорога на много, на много лет.
Второй отвечал, не так уж и много - все дело в цене на билет.

А первый кричал - куда хотим, туда едем, и можем если надо свернуть,
Второй отвечал, что поезд проедет лишь там, где проложен путь.

И оба сошли где-то под Таганрогом, среди бескрайних полей.
И каждый пошел своей дорогой, а поезд пошел своей.
Делай свое дело    
A7
Ты ко мне всегда с приветом, -
Летом и зимой...
Твой дом - мой дом,
Hо не зови меня домой.
        F7
Hе запирай меня в этих стенах,
A7
Я видел боль, я знаю роль,
                  E7
Я эту пьесу читал,
                        D7
Я не участвую в сценах,
Я не торгуюсь о ценах,
            A7
Делай своё дело.

Допустим, я - ночная птица,
Скажем, я - сова.
Мне ночами не спится,
Я делаю слова.
А пока вы днём делали дела -
Сова спала.
А пока вы спали,
Эти совы летали,
Взвесили, отмеряли, пересчитали,
Делай своё дело.

А ты уходишь в себя,
Как испуганный зверь,
А ты выходишь из себя,
В ту же самую дверь.
Следующий шаг - ещё один шанс
Переступить порог,
Hо пока на нашей улице играет рок,
Hе зови меня домой,
Мой дом на каждом углу !
Делай своё дело.
Проводница  
Когда над планетой этой стелется ночь, 
И человечество отходит ко сну. 
Она уже на посту, готова людям помочь, 
И провожает на покой луну. 
Она стоит королевой, машет ручкою левой, 
В синем кителе она хороша. 
Ее важное дело, ее нежное тело, 
И до ужаса большая душа. 

Если ты веришь в чудо, 
Если ставишь на свою звезду, 
Ты во что бы то ни стало познакомишься с ней, 
А также все, что я имею в виду. 
Какой это кайф, кайф, кайф, кайф! 
Проводница! 
Проводница! 
Проводница! 
Проводница! 

Официант, как юла, стирает пыль со стола, 
Когда она идет в вагон-ресторан. 
Ее дед по мамаше был Дерсу Узала, 
Ее прадед был Сусанин Иван. 
Она проводит тебя по скалистым горам, 
И не оступится на горной тропе, 
Она нальет тебе чай в стакан, 
А потом уйдет в свое купе. 

Если ты веришь в чудо, 
Если ставишь на свою звезду, 
Ты во что бы то ни стало познакомишься с ней, 
А также все, что я имею в виду. 
Какой это кайф, кайф, кайф, кайф! 
Проводница! 
Проводница! 
Проводница! 
Проводница! 
Мой друг    
C#m
Поднят ворот, пуст карман.
Он не молод и вечно пьян.
Он на взводе - не подходи.
Он уходит всегда один.

Припев:
         A         A7                   C#m
   Hо зато мой друг лучше всех играет блюз.
           A        A7                C#m
   Круче всех вокруг он один играет блюз.
   
Он не знает умных слов.
Он считает вас за козлов.
Даже в морге он будет играть -
Hа восторги ему плевать.

Припев.

Hочь на выдох - день на вдох.
Кто-то выжил - кто-то сдох.
Обреченно летит душа.
От саксофона до ножа.

Припев.

Поднят ворот, пуст карман.
Он не молод и вечно пьян.
Обреченно летит душа
От саксофона до ножа.

Припев.

(Е.Маргулис - А.Макаревич)
Вариант 2    
(Dm Dm7/A)*8~~

Dm Dm7/A  Dm Dm7/A  Dm Dm7/A     Dm   Dm7/A
  Поднят воpот,       пуст   каpман,
  Он немолод и вечно пьян,
  Он на взводе - не подходи,
  Он уходит всегда один,

Припев:
        Bb7
   Hо зато мой дpуг лучше всех игpает блюз,
   Кpуче всех вокpуг он один игpает блюз.

Он не знает умных слов,
Он считает вас за козлов,
Даже в моpге он будет игpать,
Hа востоpги ему плевать,

Припев.

Hочь на выдох, день на вдох,
Кто не выжил, тот издох,
Обpечённо летит душа
От саксофона до ножа,

Припев.

Поднят воpот, пуст каpман,
Он немолод и вечно пьян,
Обpечённо летит душа
От саксофона и до ножа,

Припев.
По дороге разочарований    
A          E       F#m   D
По дороге разочарований,
A         E         F#m   D
Снова очарованный пройду. 
A        E              F#m   D
Разум полон светлых ожиданий, 
A           C#7      F#
Сердце чует новую беду. 
А чего же вновь меня тревожит 
Голос, что зовет из темноты: 
"Путь ещё не пройден, век не прожит 
Тою ли дорогой бродишь ты ?" 

D                      A
То ли темнота глаза таращит, 
D                      A   C#
То ли тишина скрывает крик: 
F#m                          C#m
"Где теперь искать тебя, пропащий, 
Hm           C#m       F#m  D
Оглянешься, ты уже старик ..." 

По дороге смутных побуждений, 
Там, где ветер яростен и свеж, 
Долог путь моих перерождений 
В дальний край несбывшихся надежд. 
Сбросив гору с плеч, расправил плечи. 
Гордо приказал себе: "Лети !" 
Если я попался вам на встречу, 
Значит вам со мной не по пути. 

Слышу голоса, что вечно правы, 
И пугаюсь этой правоты: 
"Для того роса, чтоб лечь на траву, 
Поутру с росой растаешь ты..." 

Поутру, дорогой откровений, 
Мимо родника девичьих слез, 
Выйду возле кладбища сомнений, 
На крутой отчаянья утёс. 
В лад весне и с осенью в ладу, 
В зыбкий час назначенных свиданий, 
Снова очарованный пойду 
По дороге разочарований.
Вариант 2    
G          H7      Em
По дороге разочарований
Снова очарованный пойду.
Разум полон светлых начинаний,
Сердце чует новую беду.

Отчего- же так меня тревожит
Голос, что зовет из темноты.
Путь еще не пройден, век не прожит,
Тою ли дорогой ходишь ты?

Припев:
   C                      G
   То ли темнота глаза таращит,
   C                       G   H7
   То ли тишина скрывает крик.
   Em                         Hm
   Где теперь искать тебя пропащий?
   Am           H7        Em
   Оглянешься- ты уже старик.

По дороге смутных побуждений,
Из страны взбесившихся невежд.
Долог путь моих перерождений
В тайный край несбывшихся надежд.
Сбросил гору с плеч, расправил плечи,
Гордо приказал себе: "Лети".
Если я попался вам на встречу,
Значит вам со мной не по пути.

Припев:
   Слышу голоса, что вечно правы
   И пугают сектой правоты.
   Для того роса, чтоб лечь на траву,
   По утру с росой растаишь ты.
   По утру дорогой откровений,

Мимо родника девичьих слез,
Выйду возле кладбища сомнений
Hа крутой отчаянья утес.
Hа ветру, с судьбою не в ладу,
В тайный час назначенных свиданий
Снова очарованный пойду
По дороге разочарований.

Учитывая, что почти вся песня исполняется на 3-х аккордах,
рекомендуется иногда вместо H7 делать Hm. Для разнообразия.
За тех, кто в море    
A                       Em
Ты помнишь как все начиналось,
G(300023)                 //далее пpосто G
Все было впеpвые и вновь
F
Мы стpоили лодки и лодки звались
G(355433)
Веpа, Надежда, Любовь
F                     G(355433)
Как дpужно pубили канаты
C                  Am
И вдаль уходила земля
F
И волны нам пели и каждый пятый
                     G(355433)
Как пpавило был у pуля

   C
R: Я пью до дна
                  Am
   За тех, кто в моpе,
       Dm                G
   За тех, кого любит волна,
       F             G(355433)
   За тех, кому повезет.
           C
   И если цель одна
                    Am
   И в pадости и в гоpе,
       F
   То тот, кто не стpусил и весла не бpосил,
                      G(355433)
   Тот землю свою найдет.
Вариант 2    
     Am              G
Ты помнишь, как все начиналось
     Em
Все было впервые и вновь
         F             Fm
Как строили лодки и лодки звались
    Em
"Вера", "Надежда", "Любовь"
      F             G
Как дружно рубили канаты
       Em          Am
Как вдаль уходила земля
      F               D
И волны нам пели, и каждый пятый,
        F            G
Как правило, был у руля.

Припев:
      C
   Я пью до дна
                  Am
   За тех, кто в море
      F                 G
   За тех, кого любит волна
     Dm             G
   За тех, кому повезет
            C
   И если цель одна
                   Am
   И в радости и в горе
      F
   То тот, кто не струсил
     D
   И весел не бросил
         F     Fm    C
   Тот землю свою найдет.

Напрасно нас бурей пугали,
Вам скажет любой моряк,
Что бури бояться вам стоит едва ли,
В сущности буря - пустяк.
В бури лишь крепче руки,
И парус поможет идти.
Гораздо трудней не свихнуться со скуки
И выдержать полный штиль.

Припев:
Синяя птица    
        Am                                    E7
Мы в такие шагали дали, что не очень-то и дойдешь.
                                               Am
Мы в засаде годами ждали, не взирая на снег и дождь.
                                    A7            Dm
Мы в воде ледяной не плачем, и в огне почти не горим -
     Dm          Am             E7           Am
Мы охотники за удачей, птицей цвета ультрамарин.
Мы охотники за удачей, птицей цвета ультрамарин.

Говорят, что за эти годы синей птицы пропал и след.
Что в анналах родной природы этой твари в помине нет.
Говорят, что в дальние страны подалась она на всегда -
Только я заявляю прямо - это полная ерунда.
Только мы заявляем прямо - это полная ерунда.

Синей птицы не стало меньше, просто в цвете последних дней
Слишком много мужчин и женщин стали сдуру гонять за ней.
И пришлось ей стать осторожной, чтоб свободу спасти,
И вот теперь почти не возможно повстречать ее на пути.

Стала пуганной птица удачи - и не верит чужим рукам,
Да и как же ей быть иначе - браконьеры - и тут, и там.
Подкрадешься - она обманет, и вот уже навсегда ушла,
И только небо тебя поманит синим взмахом ее крыла.
Скачки    
C                                 G
Снова старт, он взят и нет пути назад,
      Dm                      C    G
И по кругу кони мчат, почти летят.
    C                      G
Вот опять я опоздал на поворот:
     Dm                        F     G
Подо мною конь чужой и конь не тот.

Оттого-то в скачках наших буйных дней
Ставят все не на людей а на коней.
Отчего же в этот час, тяжелый час,
Наши кони не всегда находят нас?

Припев:
                  C
   А все могло бы быть совсем не так,
               Am
   Если только сам себе не враг,
        F         G          C     G
   И не нужно никому чужих саней.
              C
   Это был бы сон, волшебный сон,
                  Am
   Каждый был бы просто чемпион,
        F          G           C
   Если мог бы выбирать себе коней.

Мне всегда во все года с конем везло,
Но везенье непростое ремесло.
И когда пройдет удача стороной -
На моем коне окажется другой.
Кто виноват    
Вступление:
E||--10--9--/7----------|-10h12--9h10--/7---------|------------------------------|
H||------------10p8-----|-----------------10p8----|--10b11--8--10---8----------8-|
G||*--------------------|-------------------------|---------------9----7h9-7h9---|
D||*--------------------|-------------------------|------------------------------|
A||---------------------|-------------------------|------------------------------|
E||---------------------|-------------------------|------------------------------|

E||-------------------------||
H||-------------------------||
G||--7h9--------7----------*||
D||------------------------*||
A||-------------------------||
E||-------------------------||

Solo:
E|--12/10----12---12/10-----|--10----12--10-----------|
H|--------12------------12--|-----12--------11/12-----|
G|--------------------------|-------------------------|
D|--------------------------|-------------------------|
A|--------------------------|-------------------------|
E|--------------------------|-------------------------|

E|--10---------------------|----------------------------------------|
H|-----12/10--8--10---8----|----3-3h5-----10-11b12h10-----10----11--|
G|------------------9------|--4---------12-------------12----12-----|
D|-------------------------|----------------------------------------|
A|-------------------------|----------------------------------------|
E|-------------------------|----------------------------------------|
                                                               
E|-----12-10-12--14/10----------10-------------||
H|--12-----------------12-11/12----12/10--8----||
G|------------------------------------------9--||
D|---------------------------------------------||
A|---------------------------------------------||
E|---------------------------------------------||

E||--15-------14-------15-------14--------||--15-------14------------17----------------------------|
H||-----17-------17-------17-------17-----||-----17-------17------17----17b18--17b18--17b18--17b18-|
G||--------16-------16-------16-------16--||--------16---------16----------------------------------|
D||---------------------------------------||-------------------------------------------------------|
A||---------------------------------------||-------------------------------------------------------|
E||---------------------------------------||-------------------------------------------------------|

E|--17---------------------------------------|-----------------------------------------|
H|------15--12/10------------5b6----/10--8---|----3-5----------------------------------|
G|-----------------12--7b8-7---------------9-|-/4---------4---4-----6---6------9----9--|
D|-------------------------------------------|---------/5---5----/7---7----/10---10----|
A|-------------------------------------------|-----------------------------------------|
E|-------------------------------------------|-----------------------------------------|

E|------5------------------------|------5--3-3-5---7-7-7-7--|
H|---------8---7--5--------------|--3h5---------------------|
G|-----------------------4---4---|--------------------------|
D|---/7------7--------/5---5-----|--------------------------|
A|-------------------------------|--------------------------|
E|-------------------------------|--------------------------|

....АаааааАААууууААААаууууААААа БадабаадааабууддуууДааааааа......
E|-----------------------------------------------------|
H|-----------------------------------------------------|
G|-14b15r14--12----15-14-12-----------12-15-14-12------|
D|--------------14----------14--12-14-------------14---|
A|-----------------------------------------------------|
E|-----------------------------------------------------|


        Em
Кто виноват, что ты устал,
         G
Что не нашел, чего так ждал
      C
Все потерял, что так искал,
            Em
Поднялся в небо и упал.
        Em
И чья вина, что день за днем
        G
Уходит жизнь чужим путем,
    C                 H7
И одиноким стал твой дом,
           Em
И пусто за твоим окном.

       G                A
   И меркнет свет, и молкнут звуки,
      C7          A
   И новой муки ищут руки.
      G         A
   Если боль твоя стихает,
     C7                H7  Em Hm Em
   Значит будет новая беда.

Кто виноват, скажи ка, брат - один женат, другой богат,
Один смешон, другой влюблен, один дурак, другой - твой враг?
И чья вина, что там и тут, друг друга ждут и тем живут,
Но скучен день, и ночь пуста, забиты теплые места.

Кто виноват, и в чем секрет, что горя нет и счастья нет,
Без поражений нет побед, и равен счет удач и бед?
И чья вина, что ты один, и жизнь одна и так длинна, и так скучна,
А ты все ждешь, что ты когда-нибудь умрешь...

   И меркнет свет, и глохнут звуки, и новой муки ищут руки,
   И если боль твоя стихает, значит будет новая беда...

Подбор: Pashin Timophei (t_pashin@mail.ru)
Поворот    
 G
Мы себе давали слово
 E               E7
Не сходить с пути прямого
 Am
Но...
 D            G      D
Так уж суждено! м-м-м...
 G
И уж если откровенно
 E            E7
Всех пугают перемены,
 Am
Но...
 D             G      D
Тут уж все равно, м-м-м...

Припев:
    Am             D
   Вот, новый поворот
              G
   И мотор ревет,
                 E
   Что он нам несет
                   Am
   Пропасть или взлет
              Cm
   Омут или брод
               G
   Ты не разберешь
                 E
   Пока не повернешь
           Am
   За поворот

И пугаться нет причины
Если мы еще мужчины
Мы...
Кое в чем сильней, м-м-м...
Выезжайте за ворота
И не бойтесь поворота
Пусть...
Добрым будет путь, м-м-м...

Припев:
   (вместо E->D - Am->G)
Вариант 2    
 C                      A7(Вариант Am  A7 )
Мы себе давали слово - не сходить с пути прямого,
 Dm             C    G
Но так уж суждено.
И уж если откровенно - всех пугают перемены,
Но - тут уж все равно.

Припев:
    Dm            G              C(Вариант Gm)
   Вот новый поворот, и мотор ревет,
                 A                  Dm             G7
   Что он нам несет - пропасть и взлет, омут или брод,
              C                  A7          Dm
   И не разберешь, пока не повернешь за поворот.    (для повторения)
              С                  G       Gm  A
   И не разберешь, пока не повернешь за поворот.    (для окончания)

И пугаться нет причины, если вы еще мужчины,
Вы - кое в чем сильны.
Выезжайте за ворота, и не бойтесь поворота,
Пусть добрым будет путь.

Припев:
Есть у меня    
A         D     E     A
Есть у меня песни различные, 
          D     E           A
Есть необычные, вам ни к чему. 
A         D  E      A
Есть у меня песни обычные, 
A         D       E      A
Но безразличные мне самому. 

Есть песни для девочек, песни для праздников, 
Грустные песни и просто стихи, 
Романсы и танцы, какая вам разница. 
Много плохих, но они для глухих. 

В ворохе песен для каждого случая, 
Есть тихая радость и громкая грусть, 
Вопли и вздохи, и самая лучшая 
Песня не спета еще, ну и пусть. 

А если достигну я славы и почестей 
А после постигну, что все суета, 
Есть значит правда, она в одиночестве, 
Вечная правда, а в ней красота.
Вариант 2    
Intro: ход -G-A-H- C G D G  - 2 раза

          C  D        G
Есть у меня песни различные
Есть необычные, вам ни к чему
Есть у меня песни обычные,
Но безразличные мне самому.

Проигрыш: C G D G  - 2 раза

Есть песни для девочек, песни для праздников
Грустные песни и просто стихи
Романсы и танцы, какая вам разница?
Много плохих, но они для глухих

Проигрыш.

Ворохи песен для каждого случая,
Тихая радость и громкая грусть.
Вопли и вздохи - их самое лучшее
Песня не спета ещT, ну и пусть.

Проигрыш.

А если достигну я славы и почести,
А после постигну, что всT - суета
Есть значит правда в моTм одиночестве!
Вечная правда, а в ней красота.

Проигрыш.

Подбор: Макс Шаров (m_sharov@mail.ru)
Три окна    
Hm        E7          A  Asus  A 
Я забыл о бурях и о громе, 
Мне теперь дороже тишина, 
И живу я в старом-старом доме, 
Из него выходят три окна. 

Первое окно выходит в поле, 
В поле наших самых лучших лет, 
В этом поле не бывает боли, 
И любой вопрос находит свой ответ. 

Hm           E7           C#m 
Там и днем и ночью солнце светит, 
Hm        E7           F#m 
Летом и зимой цветет земля, 
Hm           E7         A  Asus A 
Не взрослея, там играют дети, 
Hm        E7            A 
И один из них - наверно я. 

А окно второе вышло к лесу, 
Темный лес поднялся до небес, 
И от солнца лес создал завесу, 
От вопросов скрыл ответы  лес. 

И жизнь идет там по лесным законам,
И я пугался каждого куста, 
Проходя по тропкам незнакомым, 
В час, когда спускалась темнота. 

Третье окно выходит к океану, 
Ровным ветром дышит океан, 
А за ним диковинные страны, 
И никто не видел этих стран. 

Словно вечность, океан огромен, 
И сильна спокойствием волна, 
И когда мне тесно в старом доме - 
Я сажусь у третьего окна. 

Превратится в воду рек - Снег, 
Станет облаком седым - Дым, 
Станет домом твой родной Дом, 
Из руин воздвигнут вам Храм. 

Должен кончиться любой - Бой, 
Победит, сомненья нет, - Свет, 
Я возьму букет цветов - Слов, 
И раздам моим друзьям - Вам.