В начало
АБВГДЖЗИКЛМНОПРСТУФХЦЧШЭЮЯA-Z0-9
 
БИ-2 - Мяу Кисс Ми
Мяу Кисс Ми    
Hm             F#                G
Люби меня как я тебя и может полные края
                 F#
Я расплескаю все до капли
Hm             F#                   G
Вода чернеет у моста и за трубою два хвоста
                      F#
Берут за горло чьи-то лапы

    Hm                  F#
Мяу кисс ми ненавистная любовь
    G                  F#
Я зализывать твои не буду раны
    Hm                   F#
Мяу кисс ми свои мысли за кого
     G                      F#
Я гореть и плавить свое сердце стану

Навылет очередь, она так близко сядет от меня
И разорвет наверно в клочья
И все что дальше, только тень и невозможно каждый день
Для тех, кому не спится ночью
Моя любовь    
 Cm
У героев стынет кровь
Разбиваются и вновь
                Fm
Идут ко дну
                   Cm
Идут ко дну

Успокоит океан
И расстелет по волнам
Свою вину 
Свою вину

Припев:
   C#                 Cm
   Кончится пленка
    C#                G
   Ты ждешь ребенка
   От меня 

Cm
М-мм-мм-м,  М-мм-мм-м 
               Fm
Моя любовь
               Cm
Моя любовь

Уходили в плаванье
За чужие гавани
Вести войну
Вести войну

Но известно лишь волнам
Что оставит океан 
Тебя одну
Тебя одну
Зажигать    
Intro: Dm Am F C

       Dm          Am
Жадно так глотает солнце
       Dm          Am
Два сеpебpяных кpыла
        Dm             Am
Милый дpyг твой не веpнётся
        F          C
В этот гоpод никогда

И огни yсталых yлиц
Станyт по тебе скyчать
Только иа печсаль такyю
В своём сеpдце не yнять

Пpипев:
   G      Am   F       C
   И зажигать пьяные звёзды
   G         Am    G         F
   Hет, без тебя так бyдет сложно

Так легко плывyт pесницы
Hе yзнает твой геpой
Если что-нибyдь слyчится
Где-то за моpем с тобой

С ним тепеpь дpyгое небо
Облакак над головой
И стyпает ангел смело
Hезнакомый и чyжай

Пpипев.

Всё коваpная pазлyка
Обнимала как сестpа
Пpевpащала её в pyки
Два сеpебpяных кpыла

Сколько додждь шептал, а толкy?
Ей казалось не в сеpьёз
И pазбилось на осколки
Всехз невыплаканных слёз

Подбор: Dmitry Foxx 2:5030/1341.7
Вариант 2    
Cm#                H
Жадно так глотает солнце
       Cm#         Gm#
Два серебряных крыла.
        Cm#             H
Милый друг твой не вернется
        A         E
В этот город никогда.
И огни усталых улиц
Станут по тебе скучать.
Только им печаль такую
В своем сердце не унять.

Припев:
 Cm#      E  H         A
   И зажигать пьяные звезды,
   Нет, без тебя так будет сложно.

Как легко плывут ресницы,
Не узнает твой герой.
Если что-нибудь случится,
Где-то за морем с тобой.
С ним теперь другое небо,
Облака над головой.
И ступает ангел следом,
Не знакомый и чужой.

Припев.

Все коварная разлука
Обнимала как сестра.
Превращала в ее руки
Два серебряных крыла.
Сколько дождь шептал, а толку?
Ей казалось не всерьез.
И разбилась на осколки,
Всех невыплакала слез.

Припев.
Вариант 3    
Intro: Am G F C

  Am                  G       F                C
1.-----0------0-------3----------------------------0-------
2.-1------1-------1------0--------1-------1----3-----------    - 4р.
3.----------------------------2-------2--------------0-----

     Am            Em
Жадно так глотает солнце
     Am          Em
Два серебряных крыла
     Am            Em
Милый друг твой не вернется
     F         C
В этот город никогда

И огни усталых улиц
Станут по тебе скучать
Только им печаль такую
В своем сердце не унять

Припев:
   Dm        Am G          F
    И зажигать пьяные звезды...
   Dm        Am   G          F
    Нет, без тебя так будет сложно...

Как легко плывут ресницы
Не узнает твой герой
Если что нибудь случится
Где-то за морем с тобой

С ним теперь другое небо
Облака над головой
И ступает ангел следом
Незнакомый и чужой

Припев.

Все коварная разлука 
Обнимала как сестра
Превращая ее руки
В два серебряных крыла

Сколько дождь шептал, а толку
Ей казалось не в серьез
И разбилось на осколки
Всех невыплаканных слез

Подбор: Neo (anso@ptz.ru)
Елочный сок    
Hm
Умирать зимой холодно
Hm                   G Hm
От любви или от голода
Hm
А от смеха губы в трещинах
Hm                  G Hm
У тебя другая женщина

Припев:
   Em        F#
   Праздники корчатся
   G     A     Hm
   Давят елочный сок
   Em      F#  G
   Гонится белая конница
   A         F#
   Кружит снежок

За одним столом поместятся
Все друзья двенадцать месяцев
И зовут и делят поровну
Все мои четыре стороны
 
Умирать зимой холодно
От любви или от голода

Э-о, о-о-о!
Э-о, о-о-о!
Вариант 2    
Am
Умирать зимою холодно
                      F Am
От любви или от голода
Am
А от смеха губы в трещинах
                     F Am
У тебя другая женщина

  Dm       Em
Праздники корчатся
 F    G        Am Am7 Am Am7
Давят Tлочный сок
 Dm      Em    F
Гонится белая конница
  G        E
Кружит снежок

За одним столом поместятся
Все друзья двенадцать месяцев
И зовут, и делят поровну
Все мои четыре стороны

Праздники корчатся
Давят Tлочный сок
Гонится белая конница
Кружит снежок

Умирать зимою холодно
От любви или от голода

Праздники корчатся
Давят Tлочный сок
Гонится белая конница
Кружит снежок

Am7 - [002213]

Подбор: Евгений Ш. (major_s_e@e-mail.ru)
Мой рок-н-ролл    
  G         A
И то,что было набело
 Hm
Откроется потом
     G
Мой рок-н-ролл
    A            Hm
Это не цель и даже не средство

Hе новое,а заново
Один и об одном
Дорога в мой дом
И для любви это не место

Припев:
    G                A
   Прольются все слова,как дождь
    Hm
   И там,где ты меня не ждёшь
    G             A         Hm
   Hочные ветры принесут тебе прохладу
   G           A
   Hа наших лицах без ответа
       Hm             D
   Лишь только отблески рассвета
   G      A          Hm
   Того,где ты меня не ждешь

А дальше-это главное
Похожий на тебя
В долгом пути
Я заплету волосы лентой

И не способный на покой
Я знак подам тебе рукой
Прощаясь с тобой
Как будто с легендой

Припев.

И то,что было набело
Откроется потом
Мой рок-н-ролл
Это не цель и даже не средство

Hе новое,а заново
Один и об одном
Дорога в мой дом
И для любви это не место

Перебор: играется при барре на втором ладу
         с ударением на бас и на верхнюю ноту
G
-+------2-----------
-+--3-2---2---2-----
-+----------2---2---
-+------------------
-+------------------
--3-----------------

Остальные аккорды так же,меняется только бас:
для А-открытая пятая, для Hm-пятая на втором ладу,
для D-открытая четвертая
Вариант 2    
Рифф:

Играется аккорд С, потом он переносится на 3-й лад, потом Аm два раза, и все это с 
чередованием  указательного пальца.

Е----------0--------------------------0--------------------------0---------------------0----------
H-----1-------0-----1----------3--------0-----3-----------1---------0-----1--------1-----0---1----
G-------0--------0-----0---------0---------0-----0-----------2---------2-----2-------2-----2---2--
D-------------------------------------------------------------------------------------------------
A--3-------------------------5--------------------------0------------------------0----------------
E-------------------------------------------------------------------------------------------------

Между припевом и куплетом можно вставить

E-----0---------
H--------0------
G------------0--
D---------------
A---------------
E---------------

И то, что было набело 
Откроется потом 
Мой рок-н-ролл 
Это не цель и даже не средство 
Не новое ,а заново 
Один и об одном 
Дорога в мой дом
И для любви это не место 

Припев:
   Прольются все слова, как дождь
   И там, где ты меня не ждешь 
   Ночные ветры принесут тебе прохладу 
   На наших лицах без ответа 
   Лишь только отблески рассвета 
   Того, где ты меня не ждешь 

А дальше- это главное
Похожий на тебя 
В долгом пути 
Я заплету волосы лентой
И не способный на покой 
Я знак подам тебе рукой
Прощаясь с тобой 
Как будто с легендой 

Припев.

И то, что было набело
Откроется потом 
Мой рок-н-ролл 
Это не цель и даже не средство
Не новое, а заново 
Один и об одном
Дорога в мой дом 
И для любви это не место
Вариант 3    
Гитарка: 
|---------|---------|---------|-------0----------|--------0------------|
|---------|---------|---------|-----1-----1-0-1--|------1-----1-0-1----|
|---------|---------|---------|---2-----2--------|----2-----2----------|
|---------|---------|---------|------------------|---------------------|
|---------|---------|---------|------------------|---------------------|
|---------|---------|---------|-1----------------|-3-------------------|

|-------0---------|-------0-----------|
|-----1-----1-0-1-|-----1------1-0-1--|
|---2-----2-------|---2-----2---------|
|-----------------|-------------------|
|-0---------------|-0-----------------|
|-----------------|-------------------|


Басуха:

|---------|---------|---------|---------|---------|---------|----0b-------|
|---------|---------|---------|---------|---------|---------|-------------|
|---------|---------|---------|---------|---------|---------|-------------|
|---------|---------|---------|---------|---------|---------|-------3b----|

|----------|----------|----------|---------|----------|----------|----------|
|----------|----------|----------|---------|----------|----------|----------|
|----------|----------|-0--------|---------|----------|----------|-0--------|
|-1--------|-3--------|----------|---------|-1--------|-3--------|----------|

|---------|----------|----------|----------|---------|----------|----------|
|---------|----------|----------|----------|---------|----------|----------|
|---------|----------|----------|-0--------|---------|----------|----------|
|---------|-1--------|-3--------|----------|---------|-1--------|-3--------|

|----------|---------|----------|----------|-----------|-----------|----------|
|----------|---------|----------|----------|-----------|-----------|----------|
|-0--------|---------|----------|----------|-0-------0-|-0-----0---|----------|
|----------|---------|-1--------|-3--------|-----------|-----------|-1--------|

|----------|-----------|-----------|----------|----------|-----------|
|----------|-----------|-----------|----------|----------|-----------|
|----------|-0-------0-|-0------0--|----------|----------|-0-------0-|
|-3--------|-----------|-----------|-1--------|-3--------|-----------|

|-----------|----------|----------|----------|-----0b----|
|-----------|----------|----------|----------|-----------|
|-0------0--|----------|----------|-0--------|-----------|
|-----------|-1--------|-3--------|----------|-----------|


Гармошка:

|-8-------|------10--|-12--------|--------10-|-12-10-12----17--|
|---------|----------|-----------|-----------|-----------------|
|---------|----------|-----------|-----------|-----------------|
|---------|----------|-----------|-----------|-----------------|
|---------|----------|-----------|-----------|-----------------|
|---------|----------|-----------|-----------|-----------------|

|-15---12-----|-19------15------|-15---------------|-----------|------------0--|
|-------------|--------------17-|------17--15------|-----------|---------------|
|-------------|-----------------|------------------|-17--------|-16-17-16------|
|-------------|-----------------|------------------|-----------|---------------|
|-------------|-----------------|------------------|-----------|---------------|
|-------------|-----------------|------------------|-----------|---------------|

|-------------|-----5-3-0--|-1--------|-3--------|-7--------|
|-------------|------------|----------|----------|----------|
|------14-----|------------|----------|----------|----------|
|-17----------|------------|----------|----------|----------|
|-------------|------------|----------|----------|----------|
|-------------|------------|----------|----------|----------|


vtoroi raz

|---------|---------|---------|----8-7--3----|-5--------|-8-7--3-----|-0--------|
|---------|---------|---------|--------------|----------|------------|----------|
|---------|---------|---------|--------------|----------|------------|----------|
|---------|---------|---------|--------------|----------|------------|----------|
|---------|---------|---------|--------------|----------|------------|----------|
|---------|---------|---------|--------------|----------|------------|----------|

|----8-7--3--|-5--------|-7--------------7-8-|
|------------|----------|--------------------|
|------------|----------|--------------------|
|------------|----------|--------------------|
|------------|----------|--------------------|
|------------|----------|--------------------|

|----7----5--------|------------7--8----7------3---------|
|------------------|-------------------------------------|
|------------------|-------------------------------------|
|------------------|-------------------------------------|
|------------------|-------------------------------------|
|------------------|-------------------------------------|

|-5--------|------------7--8----7------0----3-----|
|----------|------------8-------------------------|
|----------|--------------------------------------|
|----------|--------------------------------------|
|----------|--------------------------------------|
|----------|--------------------------------------|

|----5-------------------------15---|-17--------|---------|---------|---------|
|-----------------------------------|-----------|---------|---------|---------|
|-----------------------------------|-----------|---------|---------|---------|
|-----------------------------------|-----------|---------|---------|---------|
|-----------------------------------|-----------|---------|---------|---------|
|-----------------------------------|-----------|---------|---------|---------|


tretii raz
|---------|--8-7--3----|-5--------|-8-7--3-----|-0--------|--8-7--3----|
|---------|------------|----------|------------|----------|------------|
|---------|------------|----------|------------|----------|------------|
|---------|------------|----------|------------|----------|------------|
|---------|------------|----------|------------|----------|------------|
|---------|------------|----------|------------|----------|------------|

|-5--------|-7--------------7-8-|----7----5-------------------------|
|----------|--------------------|-----------------------------------|
|----------|--------------------|-----------------------------------|
|----------|--------------------|-----------------------------------|
|----------|--------------------|-----------------------------------|
|----------|--------------------|-----------------------------------|

|---------7-8---7------------3-------5-|---------------------------------|
|--------------------------------------|---------------------------------|
|--------------------------------------|---------------------------------|
|--------------------------------------|---------------------------------|
|--------------------------------------|---------------------------------|
|--------------------------------------|---------------------------------|

|---8--10----8-------7-|-10-----12b---------------------------|---------|
|----------------------|--------------------------------------|---------|
|----------------------|--------------------------------------|---------|
|----------------------|--------------------------------------|---------|
|----------------------|--------------------------------------|---------|
|----------------------|--------------------------------------|---------|

|-----13-12---|-10----------10------7-----3-----------|-5--------|---------|
|-------------|---------------------------------------|----------|---------|
|-------------|---------------------------------------|----------|---------|
|-------------|---------------------------------------|----------|---------|
|-------------|---------------------------------------|----------|---------|
|-------------|---------------------------------------|----------|---------|


Клавиши(вступление)

E |----------|----------|----------|---------|----------|----------|----------|
B |----------|----------|----------|---------|----------|----------|----------|
G |-2--------|-4--------|--5-------|---------|-2--------|-0--------|-2--------|
D |----------|----------|----------|---------|----------|----------|----------|
A |----------|----------|----------|---------|----------|----------|-0--------|
E |-1--------|-3--------|-5--------|---------|-1--------|-3--------|----------|

|---------|----------|-----------|----------|---------|--------|
|---------|-1--------|-----------|-1--------|-----3---|-5------|
|---------|-2--------|-0----4----|-2--------|---------|--------|
|---------|----------|-----------|----------|---------|--------|
|---------|----------|-----------|-0--------|---------|--------|
|---------|-1--------|-3---------|----------|---------|-1------|

|----------------------------------|----------|----------|----------|
|-3--------------------------------|----------|-1--------|-1--------|
|-0------------------------------2-|----------|----------|-2--------|
|----------------------------------|----------|----------|----------|
|----------------------------------|-0--------|----------|----------|
|-3--------------------------------|----------|----------|-1--------|

|-----------|-3----5----|-3----5----|-0--------|-3-------|-5--------|
|-----------|-1---------|------3----|----------|-3-------|----------|
|-0----4----|-2---------|-----------|----------|-0-------|-2--------|
|-----------|-----------|-----------|----------|---------|----------|
|-3---------|-5---------|-----------|-1--------|-3-------|-5--------|


Вокал

|---|-----|-----|------|-----|---|----------|-----|---|-----|-----|-----|
|---|-----|-----|----1-|-----|---|-0-1---0--|-----|-0-|-1---|-----|---1-|
|---|---2-|-5---|-2----|--2--|---|----------|-----|---|-----|-----|-2---|
|---|-----|-----|------|-----|---|----------|-----|---|-----|-----|-----|
|---|-----|-----|------|-----|---|----------|-----|---|-----|-----|-----|
|---|-----|-----|------|-----|---|----------|-----|---|-----|-----|-----|

|-------|---|---|-------|----0--|---|---|-------|-------|---|-----|-------|
|-1-----|---|---|-5-3---|-1-----|---|---|-3-3---|-1-3---|---|-----|-1-3---|
|----2--|---|---|-------|-------|---|---|-------|-------|---|--2--|-------|
|-------|---|---|-------|-------|---|---|-------|-------|---|-----|-------|
|-------|---|---|-------|-------|---|---|-------|-------|---|-----|-------|
|-------|---|---|-------|-------|---|---|-------|-------|---|-----|-------|

|-------|-----|---|---|---|---|---|---|-----|-----|-------|---|-----|-------|
|-5-3---|--1--|---|---|---|---|---|---|-----|-----|----1--|---|-----|-0-1---|
|-------|-----|---|---|---|---|---|---|--2--|-5---|-2-----|---|--2--|-------|
|-------|-----|---|---|---|---|---|---|-----|-----|-------|---|-----|-------|
|-------|-----|---|---|---|---|---|---|-----|-----|-------|---|-----|-------|
|-------|-----|---|---|---|---|---|---|-----|-----|-------|---|-----|-------|

|-----|---|-----|-----|-----|-------|-----|---|-----|-------|----0--|---|---|
|-0---|---|-----|-----|-----|-1-1---|-----|---|-----|-5-3---|-1-----|---|---|
|-----|---|--2--|-5---|-2---|-------|--2--|---|--2--|-------|-------|---|---|
|-----|---|-----|-----|-----|-------|-----|---|-----|-------|-------|---|---|
|-----|---|-----|-----|-----|-------|-----|---|-----|-------|-------|---|---|
|-----|---|-----|-----|-----|-------|-----|---|-----|-------|-------|---|---|

|-------|-------|---|---|-------|-------|-----|---|---|---|---|---|---|-----|
|-3-3---|-1-3---|---|---|-3-3---|-5-3---|--1--|---|---|---|---|---|---|-----|
|-------|-------|---|---|-------|-------|-----|---|---|---|---|---|---|--2--|
|-------|-------|---|---|-------|-------|-----|---|---|---|---|---|---|-----|
|-------|-------|---|---|-------|-------|-----|---|---|---|---|---|---|-----|
|-------|-------|---|---|-------|-------|-----|---|---|---|---|---|---|-----|

|-----|-------|-----|-------|-----|---|---|-----|-----|-------|-----|-------|
|-----|----1--|-----|-------|-0---|---|---|--0--|-1---|----1--|-----|-1-3---|
|-5---|-2-----|--2--|-5-2---|-----|---|---|-----|-----|-2-----|--2--|-------|
|-----|-------|-----|-------|-----|---|---|-----|-----|-------|-----|-------|
|-----|-------|-----|-------|-----|---|---|-----|-----|-------|-----|-------|
|-----|-------|-----|-------|-----|---|---|-----|-----|-------|-----|-------|

|-0---|---|---|-----|-----|-------|-----|-------|-----|-------|-----|-------|
|-----|---|---|-----|-----|----1--|-----|-0-1---|-3---|-3-3---|--3--|-3-1---|
|-----|---|---|--2--|-5---|-2-----|--2--|-------|-----|-------|-----|-------|
|-----|---|---|-----|-----|-------|-----|-------|-----|-------|-----|-------|
|-----|---|---|-----|-----|-------|-----|-------|-----|-------|-----|-------|
|-----|---|---|-----|-----|-------|-----|-------|-----|-------|-----|-------|

|-0---|---|---|---|---|---|---|-----|-----|-------|-----|---|-----|-------|
|-----|---|---|---|---|---|---|-----|-----|----1--|-----|---|-0---|-1-1---|
|-----|---|---|---|---|---|---|--2--|-5---|-2-----|--2--|---|-----|-------|
|-----|---|---|---|---|---|---|-----|-----|-------|-----|---|-----|-------|
|-----|---|---|---|---|---|---|-----|-----|-------|-----|---|-----|-------|
|-----|---|---|---|---|---|---|-----|-----|-------|-----|---|-----|-------|

|-----|-----|-----|-----|-----|-----|-0---|-0---|-0-0---|-0-0---|---|---|---|
|--0--|-0---|-1---|-----|-1---|-3---|-----|-----|-------|-------|---|---|---|
|-----|-----|-----|-2---|-----|-----|-----|-----|-------|-------|---|---|---|
|-----|-----|-----|-----|-----|-----|-----|-----|-------|-------|---|---|---|
|-----|-----|-----|-----|-----|-----|-----|-----|-------|-------|---|---|---|
|-----|-----|-----|-----|-----|-----|-----|-----|-------|-------|---|---|---|

|-----|-----|-------|-------|---|---|---|---|---|---|---|---|---|---|---|---|
|--3--|-3---|-1-0---|-0-----|---|---|---|---|---|---|---|---|---|---|---|---|
|-----|-----|-------|----2--|---|---|---|---|---|---|---|---|---|---|---|---|
|-----|-----|-------|-------|---|---|---|---|---|---|---|---|---|---|---|---|
|-----|-----|-------|-------|---|---|---|---|---|---|---|---|---|---|---|---|
|-----|-----|-------|-------|---|---|---|---|---|---|---|---|---|---|---|---| 
Шер    
Am
Я все забыл, я пил расплавленный винил,
Am
И видел сам, как звезды падали к ногам.
Am                     H
И опускалось небо, и скалилось когда,
C                  D
Рубашками блестели злые племена
Am                      H
Вокзальные сцепились и прятали глаза,
C                      D
И выпускали когти за крошки со стола.

G
О-о драма, кошки драной,
E
От меня так близко, умирает диско,
Am
Кто против шер - 2 р.

Ни он, ни я,
Не мог бы выдержать и дня, и за тебя, 
Мне не спокойно до конца.
Движения простые, рваные хвосты,
Свирепой дискотеки правила одни
Теперь, когда их много, решиться нелегко,
И собирались тени все на одного.

О-о драма, кошки драной,
От меня так близко, умирает диско,
Кто против шер... сти!
Сокол    
Вступление:
   Fm                  G#    Hm                   C#
1-------------5------------------------------4--------
2---2---1-2----2---1-2-1-----0-2---0---0-0-2-3----2---  - 2 р.
3-----------------------1--------------------------1--

Fm                          G#
Все  объяснит в последний момент,
Hm                       C#
Брызги страстей прежние роли
Fm                        G#
Сердце в петле шифрованных лент
Hm                   C#
Тайной любви выдаст пароли

Hm                             Fm
Завтра не будет а ночь только повод
Hm                         Fm   C#
Скрыть позади этих глаз холод

Fm                     G#
Сокол не вышел на связь, что-то с тобой приключилось
Hm                        C#
Может ты просто меня разлюбила
Fm
Сокол не вышел на связь,
G#
Смелым - секретное средство,
Hm                        C#
Способ остаться в живых - бегство

Воздух молчит, немая вода
Бьются о пристань радиоволны
Память в узлах, ведут провода
Следом на верную гибель шпиона

Завтра не будет, а ночь только повод
Скрыть позади этих глаз холод
Недотрога    
Em                                  C
На такси не поеду, без денег маршруты мои
G                                        H
Ограниченный правдой в ногах - я аскет поневоле
Em                                 C
Мне не снятся соседи и бурное море любви
G                                     H
Одному по пути, только в поле я тоже не воин
C          Em(7)        G            H
А я - недотрога и немногим к сердцу дорогу покажу
C          Em(7)      G           H
Я не жадный, но однажды кто-то оставил метку свою
 
Мои кошки до боли скребут на обратный билет
Меня ждут мои тени, мои корабли атлантиды
Передай на губах, на ладонях горячий привет
И открытку из прошлого века, откуда я с видом
С тобой    
Em
Мы вышли из дома
Когда рассвело
И ты рассказала
Как мне повезло
     Am
С тобой
Em
С тобой

   Em
На улице стоит
Прекрасная погода
И было все равно
Какое время года
     Am
С тобой
Em
С тобой


Припев:
   H   A              Em
   Я и ты просто прекраснo
   H   A          Em
   Ты и я тоже ничего

Ты просто находка
Таких поискать
И каждый четвертый
Захочет гулять
С тобой
С тобой

И это не важно
Куда нам идти
Побродим походим
Часов до шести
С тобой
С тобой

Припев.

Пусть пусто в карманах
И что-то не так
Пусть утро туманно
Но это пустяк
С тобой
С тобой

Мы вышли из дома
Когда рассвело
И ты рассказала
Как мне повезло
С тобой
С тобой

Припев.

Проигрыш на скрипке (в ранней версии):
   Em                                 Am            Em
1 --7-5-3--3-3-2-0-2-3--3---3-5-3-2-0-3---------------
2 ------------------0---------------1----1-3-1-0--0---
3 -----------------------------------------------2----
4 --------------------------------------------------2-

Бас:
   Em                          Am  
3 -------0-0-----0-0-       2 ------1-1----1-1-
4 ---2-2------------- - 4р. 3 --2-2------------ 2р.
5 ----------2-2------       4 --------2-2------
Еще не вечер    
Figure:  Em  Em7   C   Csus (2 раза)

Em
У тебя война
               C  Csus  C9
Все горит в руках
Em
Линия ума
            C   Csus  C9 
Лезвие в ладонях

Am
И вино срывает голос
Em
Как стекло перемололось
F#                        C   C9   C
И однажды превратилось в пыль

Припев:
   Em
   Еще не вечер
                     F# G F#
   Под самым сердцем
   Am Am/H Am/C Am/H
   Чужое тело
   Em
   Еще не поздно
                        F#  Am  Am/H Am/C Am/H
   Осколок солнце не догорело

Figure.

За тобою боль
Как слепая месть
Но покажет бой
Дом уже не крепость
И вода пойдет под камень
Сточит быстрыми ручьями
И однажды превратится в пыль

Припев.

Figure.

Coda: Em Em7 Em  Em dim
Волки    
H (баре на 7 - ом ладу)
Волки уходят в небеса
A#( баре на 6-ом ладу)
Горят холодные глаза
G (баре на 3-ем ладу)               F#
Приказа верить в чудеса не поступало
И каждый день другая цель
То стены гор, то горы стен
И ждет отчаянных гостей чужая стая

Припев:
   H
   Спиной 
                A#
   К ветру и все же
                    G
   Выбраться может
                F#
   Чья-то душа
   Спасет,
   Но не поможет
   Чувствую кожей
   Пропащая

Не помнят слов, не видят снов
Переросли своих отцов
И, кажется, рука бойцов колоть устала.
Позор и слава в их крови, 
Хватает смерти и любви
Но сколько волка не корми, ему все мало.

Припев.

H
Волки уходят
       A#
Волки уходят
         G
Волки уходят
         F#
Волки уходят...
Вариант 2    
               Сm
Волки уходят в небеса
      D
Горят холодные глаза
        Fm                     G7
Приказа верить в чудеса не поступало
И каждый день другая цель
То стены гор, то горы стен
И ждет отчаянных гостей чужая стая

Припев:
       Cm
   Спиной 
                D
   К ветру и все же
               Fm
   Выбраться может
           G7
   Чья-то душа
   Спасет,
   Но не поможет
   Чувствую кожей
   Пропащая

Не помнят слов, не видят снов
Переросли своих отцов
И, кажется, рука бойцов колоть устала.
Позор и слава в их крови, 
Хватает смерти и любви
Но сколько волка не корми, ему все мало.

Припев.

Волки уходят
Волки уходят
Волки уходят
Волки уходят...
Последний герой (Остаться в живых)    
Intro:
e:-------0--0--------0--0--------0--0-------------:
B:------------------------------------------------:
G:------------------------------------------------:
D:------------------------------------------------:
A:------------------------------------------------:
E:-0--0--------2--2--------3--3-----------3--5--3-:

   Em          Em/F#  Em/G          Em  Em/F#  Em/G
Я больше не играю    со    своей душой
   Am      Am/B    Am/C         Am   Am/B  Am/C
Какая есть      кому-нибудь сгодится
    Em            Em/F#     Em/G    Em  Em/F#  Em/G
Но медь - не золото     и твой   герой
    Am             Am/B     Am/C     Am    Am/B  Am/C
Последний, кем бы ты    могла    гордиться

Припев:
                 Em Emmaj7 Em7
   Остаться в живых
      Em6      Em Emmaj7 Em7
   Отчаянный псих
        Em6       Am Ammaj7 Am7
   Не свой, не чужой
       Am6      Am Ammaj7 Am7 Am6
   Последний герой

Bridge:
D:-2--2-----2-----2--3-----2--2-----2-----2--3--
A:-2--2-----2-----2--3-----2--2-----2-----2--3-- x2
E:-0--0-----0-----0--1-----0--0-----0-----0--1--

Em            Em/F#    Em/G                Em  Em/F#  Em/G
   Все то немного   -  е    на четное не ставь
    Am           Am/B  Am/C          Am  Am/B  Am/C
Когда любовь и слезы  не    дороже хлеба
   Em           Em/F#     Em/G              Em  Em/F#  Em/G
И кажется, что до     земли    добраться вплавь
    Am             Am/B    Am/C           Am  Am/B  Am/C
Возможно тем, кто по    воде    уходит в небо

Припев.

Bridge. - x4

|Am|Am/B|Am/C|Asus4| - x2

Припев. - x2
Bridge. - x2

Emmaj7 = [022040]
Em7    = [022030]
Em6    = [022020]
                 
Ammaj7 = [x02204]
Am7    = [x02203]
Am6    = [x02202]